The Fall Of Troy - Fcpremix Chords & Tabs

 

Fcpremix Chords & Tabs

The Fall Of Troy Chords & Tabs

Version: 1 Type: Tab

Fcpremix Tab

Hey people, this is my first tab. Ive looked through the
otehr ones and it just didnt sound right. im not gonna put
the symbols anywhere thats for you to find out. sorry if i
messed up, i only did the intro

e|-----------------------------------------------------|
B|-----------------------------------------------------|
G|--------12----------9----------7----------5----------|
D|----10----------7----------5----------3--------------|
A|-12----------8---------7----------5------------------|
E|-----------------------------------------------------|
[ Tab from: http://www.guitartabs.cc/tabs/t/the_fall_of_troy/fcpremix_tab.html ]
e|---------------------------------------------------|
B|------------------------------12-------------|
G|--------12----------9--7---------------------------|
D|----10----------7------5---------------------------|
A|-12----------8---------7---------------------------|
E|---------------------------------------------------|

e|-----------------------------------------------------|
B|-----------------------------------------------------|
G|--------12----------9----------7----------5----------|
D|----10----------7----------5----------3--------------|
A|-12----------8---------7----------5------------------|
E|-----------------------------------------------------|

e|-----------------------------|
B|-----------------------------|
G|--------12----------9--7-----|
D|----10----------7------5-----|
A|-12----------8---------7-----|
E|-----------------------------|