The Fall Of Troy - Fcpremix Chords & Tabs

 

Fcpremix Chords & Tabs

The Fall Of Troy Chords & Tabs

Version: 2 Type: Bass Tab

Fcpremix Bass Tab

  Verse
G|-----------------------------------------------------------------------------------|
D|----7---7--------------------------------------------------------------------------|
A|-----------8-8-8-7---7-7-5--5-5-5---7-7---8-8-8-7----5-5-5-------------------------|
E|-----------------------------------------------------------3-3-3-------------------|

G|-----------------------------------------------------------------------------------|
D|----7---7--------------------------------------------------------------------------|
A|-----------8-8-8-7---7-7-5--5-5-5---7-7---8-8-8-7----5-----------------------------|
E|-----------------------------------------------------------------------------------|
 
 Verse part 2
  I know that you really wanna go...
G|-----------------------------------------------------------------------------------|
D|-----------------------------------------------------------------------------------|
A|----0-0--8-8---------7-7---5--5-5------0-0--8-8-7-----5-5-5-----------------------|
E|-------------------------------------------------------------3-3-3-----------------|
  
G|-----------------------------------------------------------------------------------|
D|-----------------------------------------------------------------------------------|
A|----0-0--8-8---------7-7---5--5-5------0-0--8-8-7-----5-5-5-5---------------------|
E|---------------------------------------------------------------3-3-3-3-------------|
[ Tab from: http://www.guitartabs.cc/tabs/t/the_fall_of_troy/fcpremix_btab_ver_2.html ]
  Chorus
G|-----------------------------------------------------------------------------------|
D|-----------------------------------------------------------------------------------|
A|-0(x14)---2-2---3(x13)--5-5-5---8--8--8-8----8--8--8-8---3(x8)---5(x8)-------------|
E|-----------------------------------------------------------------------------------|

  Bridge
G|------|----------5-----------------------------------------------------------------|
D|------|--------0---7-------------------------2-------------------------------------|
A|-7-8-7|-5--5-7--------5--3-5-3-5-3--0--0-3-0---0--7-8-7----------------------------|
E|------|----------------------------------------------------------------------------|

G|-----------------------------------------------------------------------------------|
D|-----------------------------------------------------------------------------------|
A|--5-----5----0-----7-8-7-----------------------------------------------------------|
E|-----------------------------------------------------------------------------------|

  Solo
G|--------7---0-8--------------------------------------------------------------------|
D|-7---------------------------------------------------------------------------------|
A|---6-0----0------------------------------------------------------------------------|
E|-----------------------------------------------------------------------------------|

  Bridge 2
G|--------------------------------------------------------5-5-5----------------------|
D|---------------------------------------------------7-7-----------------------------|
A|-6-0-0-6-0-0--7---6-0-0-6-0-0-7---6-0-0--6-0-0-7-----------------------------------|
E|-----------------------------------------------------------------------------------|






Zeb n Junk