The Fall Of Troy - Adventures Of Allan Gordon Chords & Tabs

 

Adventures Of Allan Gordon Chords & Tabs

The Fall Of Troy Chords & Tabs

Version: 1 Type: Tab 0 ratings
1 star 2 stars 3 stars 4 stars 5 stars
comments

Adventures Of Allan Gordon Tab

   
------------------------------------------------------------------------------
       The Adventures of Allan Gordon - Fall Of Troy
-------------------------------------------------------------------------------
Tabbed by: Jordan E.
Email: InitialJRift@yahoo.com

Tuning: standard

these are most of the main parts to this song
 along with some of the fills in the back
:00
e|--------------------------------------------|
B|--------------------------------------------|
G|--------------------------------------------|
D|---------99--------9-9-9h10h9---------------|
A|--777-------777-----------------------------|
E|--------------------------------------------|
repeat this as many times as necessary

:19
e|------------------------------------|
B|------------------------------------|
G|------------------------------------|
D|---2-----let ring-------------------|
A|---2-----let ring-------------------|
E|---0--------------------------------|
:23 fill
e|------------------------------------------|
B|------------------------------------------|
G|---12^---9--------------9^----------------|
D|----------------12p9---12^----------------|
A|------------------------------------------|
E|------------------------------------------|
:27
e|------------------------------------------|
B|------------------------------------------|
G|------------------------------------------|
D|---9--3--5----2-----let ring--------------|
A|---9--3--5----2-----let ring--------------|
E|---7--5--3----0---------------------------|
:32
e|---------------------------------------------------|
B|---------------------------------------------------|
G|-12p10p9--12p10p9--12p10p9--12p10p9--12p10p9-------|
D|---------------------------------------------------|
A|---------------------------------------------------|
E|---------------------------------------------------|
[ Tab from: http://www.guitartabs.cc/tabs/t/the_fall_of_troy/adventures_of_allan_gordon_tab.html ]
e|-----------------------------------------------------------|
B|-----------------------------------------------------------|
G|--15p14h15p14h15p14h15p14-16^-/////------------------------|
D|-----------------------------------------------------------|
A|-----------------------------------------------------------|
E|-----------------------------------------------------------|
:37
e|-------------------------------------------|
B|-------------------------------------------|
G|-------------------------------------------|
D|--2---let ring-----------------------------|
A|--2---let ring-----------------------------|
E|--0----------------------------------------|
:53 this part is a bit tricky, i think some effects are used for this sound
along with sliding up and down the neck pretty quickly, but the sound is
somewhere around this:
e|-----16----------------------------------|
B|----16-----------------------------------|
G|---14------------------------------------|
D|-----------------------------------------|
A|-----------------------------------------|
E|-----------------------------------------|
1:01
e|---------------------------------------------------|
B|---------------------------------------------------|
G|---------------------------------------------------|
D|----8---6--2------x--x-----------------------------|
A|----8---6--2------x--x-----------------------------|
E|----6---4--0------x--x-----------------------------|
^^guitar 2 plays the fill from 53 seconds during this part
1:33
this is the verse part, the picking pattern is alternated but these
are the notes being played
e|--------------------------------------------------------|
B|--12--10--15-12---13-12-10---15-13-12---13-12-10--------|
G|--------------------------12---------------------12-----|
D|--------------------------------------------------------|
A|--------------------------------------------------------|
E|--------------------------------------------------------|

these are the main parts that make up the song, the ones stated above
are used again in after the verse.

| /  slide up
| \  slide down
| h  hammer-on
| p  pull-off
| ~  vibrato
| +  harmonic
| x  Mute note
=============================================
Comments