The F-ups - I Dont Know Chords & Tabs

 

I Dont Know Chords & Tabs

The F-ups Chords & Tabs

Version: 1 Type: Tab 0 ratings
1 star 2 stars 3 stars 4 stars 5 stars
comments

I Dont Know Tab

ARTIST: THE F-UPS
SONG: I DON'T KNOW
ALBUM: S/T
TUNING: STANDARD

INTRO/CHORUS: GUITAR 1

-------------------------------|
-----------------4--4-4--6-6---|
-4--4-4--4--4-4--4--4-4--6-6---|  X4
-4--4-4--4--4-4--2--2-2--4-4---|
-2--2-2--2--2-2----------------|

GUITAR 2 (COMES IN AFTER TWO TIMES THROUGH)
[ Tab from: http://www.guitartabs.cc/tabs/t/the_f_ups/i_dont_know_tab.html ]
---------------------------------------------------------------------|
---------------------------------------------------------------------|
-11-11-11--11-10-10-10--10-8-8-8--8-6-6-6--6-------------------------|
--x--x--x---x--x--x--x---x-x-x-x--x-x-x-x--x-4-4-4--4-8-6--8-6-4-4---|
--9--9--9---9--8--8--8---8-6-6-6--6-4-4-4--4-x-x-x--x-x-x--x-x-x-x---|
---------------------------------------------2-2-2--2-6-4--6-4-2-2---|

VERSE:

P.M.
-------------------------------------------|
-------------------------------------------|
------------4--4-4--X-------------6--6-6---|
-4--4-4--X--4--4-4--X--6--6-6--X--6--6-6---|  X4
-4--4-4--X--2--2-2--X--6--6-6--X--4--4-4---|
-2--2-2--X-------------4--4-4--X-----------|

BRIDGE:
(THIS PART IS HARD TO HEAR BUT I THINK IT GOES LIKE THIS)

-6-----8-----6----------|
---6-----6-----6--------|
-----8-----8-----8------|
------------------------|
------------------------|
------------------------|



PUNX642@YAHOO.COM
Comments