The Explosion - I Know Chords & Tabs

 

I Know Chords & Tabs

The Explosion Chords & Tabs

Version: 1 Type: Tab 0 ratings
1 star 2 stars 3 stars 4 stars 5 stars
comments

I Know Tab

   
-------------------------------------------------------------------------------
			     I Know - The Explosion
-------------------------------------------------------------------------------
Tabbed by:Mark
Email:happytreefriends_firstblood@hotmail.com

What more can I say, I love this song but a complete bitch to both tab and write
out so be kind with comments! This and Mothers Cry have been the worst to tab!
I'm currently tabbing "Atrocity" but its the bitchiest to do so be patient! lol
Well enjoi this! i'm 200% sure its correct so please rate kindly. Hope I managed
to explain everything correctly!

Wooooooooooooooooooo The Explosion Rule!

Tuning: Standard (EADGBe)

Riff A - Guitar 1
e|---------------------------------------------------------------------------|
B|---------------------------------------------------------------------------|
G|---------------------------------------------------------------------------|
D|---------------------------------------------------------------------------|
A|--5--5--5--5--5--5--5--5--5--5--5--5--5--5--5--5---------------------------|
E|00-00-55-55-00-00-55-55-00-00-55-55-00-00-55-55----------------------------|
  PM PM PM PM PM PM PM PM PM PM PM PM PM PM PM PM

Riff A - Guitar 1

Fill A - Guitar 2    Riff B - Guitar 1 (Fill A played with Riff B (listen to song))
e|---------------------------------------------------------------------------|
B|---------------------------------------------------------------------------|
G|---------------------------------------------------------------------------|
D|222------------------5--5--5--5--5--5--5--5--5--5--5--5--------------------|
A|222------------------5--5--5--5--5--5--5--5--5--5--5--5--------------------|
E|000----------------00-00-55-55-00-00-55-55-00-00-55-55---------------------|
                     PM PM PM PM PM PM PM PM PM PM PM PM

Rhy. Fig 1 (x4) - Guitar 1 & 2
e|---------------------------------------------------------------------------|
B|---------------------------------------------------------------------------|
G|---------------------------------------------------------------------------|
D|2222222277777777-----------------------------------------------------------|
A|2222222277777777-----------------------------------------------------------|
E|0000000055555555-----------------------------------------------------------|

Rhy. Fig 2 (x4) - Guitar 1 & 2
e|---------------------------------------------------------------------------|
B|---------------------------------------------------------------------------|
G|---------------------------------------------------------------------------|
D|2------------7-------------------------------------------------------------|
A|2------------7-------------------------------------------------------------|
E|0------------5-------------------------------------------------------------|
  |----------- |-----------

Riff C - Guitar 1
e|---------------------------------------------------------------------------|
B|---------------------------------------------------------------------------|
G|---------------------------------------------------------------------------|
D|--5--5--5--5--5--5--5--5--5--5--5--5--5--5-55555555------------------------|
A|--5--5--5--5--5--5--5--5--5--5--5--5--5--5-55555555------------------------|
E|00-00-55-55-00-00-55-55-00-00-55-55-00-00----------------------------------|
  PM PM PM PM PM PM PM PM PM PM PM PM PM PM
[ Tab from: http://www.guitartabs.cc/tabs/t/the_explosion/i_know_tab.html ]
Guitar 2 plays this whilst Guitar 1 plays Riff C - it could be a bass line but
sounds good to me!
e|---------------------------------------------------------------------------|
B|---------------------------------------------------------------------------|
G|---------------------------------------------------------------------------|
D|---------------------------------------------------------------------------|
A|---------------------------------------------------------------------------|
E|0000000055555555-----------------------------------------------------------|
  PM--------------

Rhy. Fig 1 (x8) - Guitar 1 & 2

Riff D - Guitar 2  Ok here what you want to do is bend the note upwards slowly
(listen to song for tempo) and then when at the top of the bend pluck the string
and slowly release the bend! When you pluck the string at the top of the bend I
put that bit in the brackets! Finally on the last note in brackets you just hold
the note at the top of the bend and pluck it for however long necessary!
e|---------------------------------------------------------------------------|
B|---------------------------------------------------------------------------|
G|---------------------------------------------------------------------------|
D|13b-(13)r-13b-(13)r-13b-(13)r-13b-(13)r-13b-(13)---------------------------|
A|---------------------------------------------------------------------------|
E|---------------------------------------------------------------------------|

Rhy. Fill A (x6) - Guitar 1 played with Fill B
e|---------------------------------------------------------------------------|
B|---------------------------------------------------------------------------|
G|---------------------------------------------------------------------------|
D|22222222555555557777777777777777-------------------------------------------|
A|22222222555555557777777777777777-------------------------------------------|
E|00000000333333335555555555555555-------------------------------------------|

Rhy. Fig 2 (x4) - Guitar 1
Riff B - Guitar 1
Then whilst Guitar 1 plays Rhy. Fig 2 & Riff B Guitar 2 plays the following riff!

                         |-----Repeat 4 times------|
e|---------------------------------------------------------------------------|
B|17-------------------------------------------------------------------------|
G|--16--------14-------------------------------------------------------------|
D|----17-16h17--17-16-14--14h16-17-14h16-17-14h1617--14b-12-11-9-------------|
A|-------------------------------------------------------------7-------------|
E|---------------------------------------------------------------------------|
                                                               |-------

Fill B - Guitar 1
e|---------------------------------------------------------------------------|
B|---------------------------------------------------------------------------|
G|---------------------------------------------------------------------------|
D|--2----5----7----5---------------------------------------------------------|
A|---2----5----7----5--------------------------------------------------------|
E|0----3----5----3-----------------------------------------------------------|

Fill C (x3) - Guitar 1 & 2            Play this after playing Fill C 3 times
e|---------------------------------------------------------------------------|
B|---------------------------------------------------------------------------|
G|---------------------------------------------------------------------------|
D|------------------------------------------------------7b-------------------|
A|------------------------------------------------------7b-------------------|
E|00000000111111115555555555555555-----0000000011111111-5b-------------------|
  PM------------------------------     PM--------------

Rhy. Fig 1 (x11) - Guitar 1 & 2

Ending - Guitar 1 & 2
e|---------------------------------------------------------------------------|
B|---------------------------------------------------------------------------|
G|---------------------------------------------------------------------------|
D|7-7-7-7-7-7-2--------------------------------------------------------------|
A|7-7-7-7-7-7-2--------------------------------------------------------------|
E|5-5-5-5-5-5-0--------------------------------------------------------------|
              |---------------

| h  hammer-on
| PM---  Palm Muted
| |----  Hold note/let ring
| b     Bend
| r     Release
===============================================================================
Comments