The Explosion - Heavyweight Chords & Tabs

 

Heavyweight Chords & Tabs

The Explosion Chords & Tabs

Version: 1 Type: Tab 0 ratings
1 star 2 stars 3 stars 4 stars 5 stars
comments

Heavyweight Tab

   
Pretty easy song i havent figured out the solo but heres the rest of the song

Intro
e-|------------------------------------|
B-|------------------------------------|
G-|------------------------------------|
D-|44444444-44444444-44444444-44444444-|
A-|44444444-44444444-44444444-44444444-|
E-|22222222-22222222-22222222-22222222-|

Riff 1  (Verse 1 & Breakdown)
e-|--------------------|
B-|--------------------|
G-|4--4--4-------------|
D-|4--4224244244242----|
A-|2--2222244244242----|
E-|----00-022022020----|
[ Tab from: http://www.guitartabs.cc/tabs/t/the_explosion/heavyweight_tab.html ]
Riff 2  (Chorus)
e-|----------------------|------------------------------------------|
B-|----------------------|------------------------------------------|
G-|4-44----------------3x|---------44444444-------------------------|
D-|4-44222244244242------|-22-2222244444444-------------------------|
A-|2-22222244244242------|-22-2222222222222-------------------------|
E-|----000022022020------|-00-00000---------------------------------|

Guitar 1 verse 2  4x      Guitar 2 verse 2 4x   Then after that...
e-|----------------|   e-|----------------|     e-|--------|
B-|----------------|   B-|----------------|     B-|--------|
G-|----------------|   G-|----------------|     G-|--------|
D-|9999999988888888|   D-|-------------444|     D-|44444444|
A-|----------------|   A-|-------------444|     A-|44444444|
E-|----------------|   E-|-------------222|     E-|22222222|


outro
e-|----------------------------------|
B-|----------------------------------|
G-|----------------------------------|
D-|444444444444444444444444444444442~|
A-|444444444444444444444444444444442~|
E-|222222222222222222222222222222220~|
Order

intro
riff 1 12x
riff 2
riff 1 2x
verse 2 (1st four measures are bass, drums, nd vocals)
riff 2
riff 1 11x
chorus 2x
outro
Comments