The Explosion - Deliver Us Chords & Tabs

 

Deliver Us Chords & Tabs

The Explosion Chords & Tabs

Version: 1 Type: Tab 0 ratings
1 star 2 stars 3 stars 4 stars 5 stars
comments

Deliver Us Tab

   
-------------------------------------------------------------------------------
			     Deliver Us - The Explosion
-------------------------------------------------------------------------------
Tabbed by:Mark
Email:happytreefriends_firstblood@hotmail.com

Ok this is my first tab and i reckon it's 100% right! I've tabbed the first four songs
off Black Tape so look out for them! The Explosion f**king rule! And they rule live! i
saw em at Good Charlotte and they were amazing!

Tuning:Standard (EADGBe)7
Intro
e|---------------------------------------------------------------------------|
B|---------------------------------------------------------------------------|
G|2-------4------------------------------------------------------------------|
D|2-------4------------------------------------------------------------------|
A|0-------2------------------------------------------------------------------|
E|-------------------P.S.----------------------------------------------------|
          |---------- 
play this opening chord numerous times-I'm not too sure bout it but it works for me

Rhy. Fig (x8)
e|---------------------------------------------------------------------------|
B|---------------------------------------------------------------------------|
G|----9999--99---------------------------------------------------------------|
D|9999999966999999-----------------------------------------------------------|
A|9999777766779999-----------------------------------------------------------|
E|7777----44--7777-----------------------------------------------------------|

Riff A(x2)
e|---------------------------------------------------------------------------|
B|---------------------------------------------------------------------------|
G|----------------------------------------------------------18bbb-21bbb------|
D|16p14h16--16p14\13---16-16-16p14\13---16p14h16--16p14\13-------------------|
A|------------------14---------------14-------------------14-----------------|
E|---------------------------------------------------------------------------|

Intro
[ Tab from: http://www.guitartabs.cc/tabs/t/the_explosion/deliver_us_tab.html ]
e|20-------------------------------------------------------------------------|
B|18-20----------------------------------------------------------------------|
G|---18----------------------------------------------------------------------|
D|---------------------------------------------------------------------------|
A|---------------------------------------------------------------------------|
E|---------------------------------------------------------------------------|
something like this after the intro

Rhy. Fig (x4)

Fill (x2)
e|---------------------------------------------------------------------------|
B|---------------------------------------------------------------------------|
G|---------------------------------------------------------------------------|
D|4-4444-44------------------------------------------------------------------|
A|2-2222-22-2-2222-22-6-6666-66-4-4444-44------------------------------------|
E|----------0-0000-00-4-4444-44-2-2222-22---P.S.-----------------------------|
  |--------------------------------------
   Palm Muted

Ending
e|---------------------------------------------------------------------------|
B|---------------------------------------------------------------------------|
G|---------------------------------------------------------------------------|
D|16p14h16--16p14\13---16-16-16p14\13----16-16-16p14\13----------------------|
A|------------------14---------------14----------------14--------------------|
E|---------------------------------------------------------------------------|

e|---------------------------------------------------------------------------|
B|---------------------------------------------------------------------------|
G|---------------------------------------------------------------------------|
D|16-16-16p14\13----16-16-16p14\13----16-16-16p14\13-------------------------|
A|--------------14----------------14----------------14-----------------------|
E|---------------------------------------------------------------------------|


| /  slide up
| \  slide down
| p  pull-off
| h  hammer on
| P.S.  Pick scratch
| b  bend
===============================================================================
Comments