The Elevators - Na Krilih Ljubezni Chords & Tabs

 

Na Krilih Ljubezni Chords & Tabs

The Elevators Chords & Tabs

Version: 1 Type: Bass Tab 0 ratings
1 star 2 stars 3 stars 4 stars 5 stars
comments

Na Krilih Ljubezni Bass Tab

Na krilih ljubezni
Elevators
By: Tomaž Mihelec (MSN: bf_tompenny@hotmail.com)

Intro:
G-|----------------------------------------------------------------------------------|
D-|--------------------------------------------------------------------8-------------|
A-|------------------------8-7-6--8-10-8-10------8-7-6--8-10--10-8-------------------|
E-|-4(pull to 11)-8-8-------------------------8-8------------------------------------|


Main part (repeat so many times like in the song):
G-|-----------------------------------------------------------------|
D-|--------------------------------------------------8--------------|
A-|------8-7-6--8-10-8-10------8-7-6--8-10--10-8--------------------|
E-|-8-8-------------------------8-8---------------------------------|

[ Tab from: http://www.guitartabs.cc/tabs/t/the_elevators/na_krilih_ljubezni_btab.html ]
A passage betwen the singing and music:
G-|---------------------------------------------------------------8----|
D-|---------------------------------10---8-10-----------8-10-----------|
A-|------8-7-6--8-10-8-10-------10-------9-8--10-----------------------|
E-|-8-8-------------------------8--------------------------------------|

A jazzy touch to the bass-line (use it as you wish) that the bassist uses in this song (2 times):
G-|---------------------------------------------------------------------|
D-|---------------------------------------------8-7--10-8-7-------------|
A-|------8-7-6--8-10-8-10------8-7-6-------8----------8-----------------|
E-|-8-8-------------------------8-8-------------------------------------|

The guitar picking part:
G-|------------------------------------------------------------------------------|
D-|--------------------------------10-------------------------------8-10---------|
A-|-------------------------8-10-----------------------------8-10----------------|
E-|-8-8-8-8-8-8-8-8-8-----------8-8-8-8-8-8-8-8-8--------------------------------|


Not that hard to master, but takes some time to get it right :)
Have fun!
Comments