The Dictators - Science Gone To Far Chords & Tabs

 

Science Gone To Far Chords & Tabs

The Dictators Chords & Tabs

Version: 1 Type: Tab 0 ratings
1 star 2 stars 3 stars 4 stars 5 stars
comments

Science Gone To Far Tab

Artist: The Dictators
Title: Science Gone To Far
Album: Manifest Destiny 

Close to perfect, but no solo. I might be able to get to it later.

There’s a lot of different riffs in this song so instead of the verse, chorus ect. layout, 
I have it written out in parts.

: - let ring

Part 1 – for the opening just do triplets on the high(octave of the low E string) E chord 
|-----|
|-----|
|--9--| 
|--9—-|
|--7--|
|-----|

Part 2 – quick triplets
|------------------------|
|------------------------|
|-999:--777:--666:--777:-|
|-999:--777:--666:--777:-|
|-777:--555:--444:--555:-|
|------------------------|

Part 3
|---------------------------|	end with   |--------------|
|---------------------------|		   |--------------|
|---------------------------|		   |--------------|
|-9-11-9-11---11-9-11--11-9-|		   |--------------|
|-7--7-7--7----7-7--7--7--7-|		   |-9-7---7------|
|---------------------------|		   |-----9----9-7-|
[ Tab from: http://www.guitartabs.cc/tabs/t/the_dictators/science_gone_to_far_tab.html ]
Part 4 (verse)
|-------------------------------------------------------------------|
|-------------------------------------------------------------------|
|----------------------------------------------------------9-9--9-9-|
|-------------------7-7-7-7-9-7-9-7-7-9-9-9-9-11-9-11-9-9—-9-9--9-9-|
|-7-7-7-7-9-7-9-7-7-5-5-5-5-5-5-5-5-5-7-7-7-7--7-7--7-7-7--7-7--7-7-|
|-5-5-5-5-5-5-5-5-5-------------------------------------------------|

Part 5
|-----------------------------------------------------|         
|----10p9p7--------8p7p5--------7p6p4p----------------|	    
|-9:--------9p7-7:-------7p5-6:--------6p4-2:---------| 2x 
|-9:------------7:-----------6:------------2:-------0-|	    
|-7:------------5:-----------4:------------0:-0-2-4---|

then
|-------------|
|-------------|
|-2--2--2-2-2-|
|-2--2--2-2-2-|
|-0--0--0-0-0-|
|-------------|
	   
Part 6 – “Science gone to far...”
|---------------------|
|---------------------|
|-9:---7:---6:---4:---|
|-9:---7:---6:---4:---|
|-7:---5:---4:---2:---|

Part 7 – End
|----------------------------------|
|----------------------------------|
|-9-9--9-9--9-9--9-9--9-9--9-9-----|
|-9-9--9-9--9-9--9-9--9-9--9-9-----|
|-7-7--7-7--7-7--7-7--7-7--7-7-----|
|-------------------------------12/|

Part 1
Part 2 2x
Part 3 4x
Part 4 4x
Part 5 2x
Part 6 2x
Part 4 3x
Part 5 2x
Part 6 2x
Solo
Part 6 4x
Part 4 
Part 7


Comments