The Derailers - Your Guess Is Good As Mine Chords & Tabs

 

Your Guess Is Good As Mine Chords & Tabs

The Derailers Chords & Tabs

Version: 1 Type: Chords 0 ratings
1 star 2 stars 3 stars 4 stars 5 stars
comments

Your Guess Is Good As Mine Chords

   
HEY GUYS THIS IS A GREAT SONG BY THE BAND THE DERAILERS, A BAND FROM AUSTIN TEXAS THERE
ARE NO OTHER TABS FOR THIS SONG SO I DID IT MYSELF!!!

TABBED BY: JOBI-WAN-KANOBI (LEAD GUITAR FOR "THE BOTTOM LINE")

YOUR GUESS IS GOOD AS MINE

INTRO: F#-SLIDE-G 5x
(FOR THE INTRO PLAY AN OPEN "G" CHORD
AND SLIDE JUST THE BASS NOTE FROM F# TO G


VERSE 1:
G
Every time we talk you keep askin' me
                                D              G
where our hearts are headed and how it's gonna be
G
Well it's to soon to tell I can't make that call
                                 D              G
I'm not a fortune-teller I don't have a crystal ball

CHORUS:
D                              G
Your guess is good as mine I'm playin' it by ear
    D                    G
and I'm not really sure where we go from here
 D                       G
where our love will lead we may learn in time
D                          G
baby your guess is good as mine
[ Tab from: http://www.guitartabs.cc/tabs/t/the_derailers/your_guess_is_good_as_mine_crd.html ]
REPEAT INTRO
SOLO (OVER VERSE CHORDS)
e-------------------------------------|
B-------------------------------------|
G--/7-77--5--3-------/7-77--5--3b-----|
D--------------5----------------------|
A-------------------------------------|
E-------------------------------------|

e-------------------------------------|
B-------------------------------------|
G--/7-77--5--3---3--5B6R5-33----------|
D--------------5----------------------|
A-------------------------------------|
E-------------------------------------|

REPEAT CHORUS

VERSE 2:
G
don't worry for tomorrow forget about the past
                              D                  G
There's another moment don't leave the best for last
G
There may come a day when we can reminisce
                                   D
Right now we better concentrate on every single kiss


REPEAT CHORUS

yeahhhhh
REPEAT FIRST SOLO
OVER SOLO:

Your guess is good as mine
Your guess is good as mine

                                THAIR YA GO,
                                           DUDE
Comments