The Departure - Dont Come Any Closer Chords & Tabs

 

Dont Come Any Closer Chords & Tabs

The Departure Chords & Tabs

Version: 1 Type: Bass Tab

Dont Come Any Closer Bass Tab

The Departure - Don't Come Any Closer
www.thedeparture.co.uk
Tabbed by revolt! (onlysmartieshavetheanswer66@hotmail.com)

(00:00)
X1    X3
G|---|------------------------------|
D|---|-2--2--2--2--2--2--2--2--2--2-|
A|---|------------------------------|
D|-2-|------------------------------|

X1
G|--------2-2-4h5-----2-2--------------------------------7-7---------|
D|-2--2-2---------5-5------2--2-2------------2--2-2--7-7-----5-5-7-7-|
A|----------------------------------5-5-5-5--------------------------|
D|-------------------------------------------------------------------|

X1
G|----------------|
D|-2--2-2--2--2-2-|
A|----------------|
D|----------------|

X1
G|--------2-2-4h5-----2-2-----------------------------------------------|
D|-2--2-2---------5-5------2--2-2------------2--2-2---------------------|
A|----------------------------------5-5-5-5-----------------------------|
D|---------------------------------------------------5-5--7-7--2--2-2-2-|

X1
G|-----------------------------------------------------------|
D|-----------------------------------------------------------|
A|-----------------------------------------------------------|
D|-12-12--12-12-12--12-12-12-12/5-5--5--7-7--7-7-7--7-7-7--7-|

G|---------------------------------------------|
D|---------------------------------------------|
A|---------------------------------------------|
D|-5-5--5/12-12--12-12-12--12-12-12/5-5--5--2~-|

X1
G|----------------------------------------|
D|-2--2--2--2--2--22222--2--2-2-----------|
A|--------------------------------5-5-5-5-|
D|----------------------------------------|

X1
G|-------------7-7--------------------------|
D|-2--2-2--7-7-----5-5-7-7---2--2-2--2--2-2-|
A|------------------------------------------|
D|------------------------------------------|

X1
G|--------2-2-4h5-----2-2-----------------------------------------------|
D|-2--2-2---------5-5------2--2-2------------2--2-2---------------------|
A|----------------------------------5-5-5-5-----------------------------|
D|---------------------------------------------------5-5--7-7--2--2-2-2-|

X1
G|-----------------------------------------------------------|
D|-----------------------------------------------------------|
A|-----------------------------------------------------------|
D|-12-12--12-12-12--12-12-12-12/5-5--5--7-7--7-7-7--7-7-7--7-|

G|-----------------------------------------------------------------|
D|-----------------------------------------------------------------|
A|-----------------------------------------------------------------|
D|-5-5--5/12-12--12-12-12--12-12-12/5-5--5--2--2--2--2--2--2--2--2-|

X1
G|-----------------------------------------------------------|
D|-----------------------------------------------------------|
A|-----------------------------------------------------------|
D|-12-12--12-12-12--12-12-12-12/5-5--5--7-7--7-7-7--7-7-7--7-|
[ Tab from: http://www.guitartabs.cc/tabs/t/the_departure/dont_come_any_closer_btab.html ]
G|----------------------------------------------------|
D|----------------------------------------------------|
A|----------------------------------------------------|
D|-5-5--5/12-12--12-12-12--12-12-12/5-5--5--2~--2-2-2-|

X2
G|---------------------------------------------------------|
D|---------------------------------------------------------|
A|---------------------------------------------------------|
D|-2-2-2-2--2--2--2-2-2--2-2-2-2-2-2-2--2--2--2-2-2--2-2-2-|

G|---------------------------------------------------------|
D|---------------------------------------------------------|
A|---------------------------------------------------------|
D|-5-5-5-5--5--5--5-5-5--5-5-5-5-5-5-5--5--5--5-5-5--5-5-5-|

X1
G|------------------------------------------------------------------------------------------------| 
D|------------------------------------------------------------------------------------------------|  
A|-------------------------------------------------2--2--2--2--2--2--2--2--2--2--2--2--2--2--2--2-|  
D|-2--2--2--2--2--2--2--2--2--2--2--2--2--2--2--2-------------------------------------------------|   
						       
X1
G|------------------------------------------------------------------------------------------------|
D|------------------------------------------------------------------------------------------------|
A|------------------------------------------------------------------------------------------------|
D|-2--2--2--2--2--2--2--2--2--2--2--2--2--2--2--2--5--5--5--5--5--5--5--5--5--5--5--5--5--5--5--5-|

X1
G|--------------------------------------------------------------------------------------------|
D|------------------------------------------------------------------------------------2--2--2-|
A|-------------------------------------------------2--2--2--2--2--2--2--2--2--2--2--2---------|
D|-2--2--2--2--2--2--2--2--2--2--2--2--2--2--2--2---------------------------------------------|

X1
G|-----------------------------------------------------------|
D|-----------------------------------------------------------|
A|-----------------------------------------------------------|
D|-12-12--12-12-12--12-12-12-12/5-5--5--7-7--7-7-7--7-7-7--7-|

G|-----------------------------------------------------------------|
D|-----------------------------------------------------------------|
A|-----------------------------------------------------------------|
D|-5-5--5/12-12--12-12-12--12-12-12/5-5--5--2--2--2--2--2--2--2--2-|

X1
G|-------------------------------------------------------------------------------------------------------|
D|-------------------------------------------------------------------------------------------------------|
A|-------------------------------------------------------------------------------------------------------|
D|-12-12--12-12-12--12-12-12-12/5-5--5--7-7--7-7-7--7-7-7--7-5-5--5/12-12--12-12-12--12-12-12/5-5--5--2~-|