The Departure - Dirty Words Chords & Tabs

 

Dirty Words Chords & Tabs

The Departure Chords & Tabs

Version: 1 Type: Bass Tab

Dirty Words Bass Tab

The Departure - Dirty Words
www.thedeparture.co.uk
Tabbed by revolt! (onlysmartieshavetheanswer66@hotmail.com)

(00:13)

G|--------------------------------------------------------------------|
D|-2------------------------------------------------------------------|
A|--------------------------------------------------------------------|
D|---2-2--2-2-2--2-2-2-2-2--2-2-2--2-2-2-2-2--2-2-2--2-2-2-2-2--2-2-2-|

X2
G|-------------------------------------------------------------------------------|
D|-------------------------------------------0-0-2------0-0-2--------------------|
A|---2-0-0------2-0-0---2-0----------2-0-0---------3----------3------------------|
D|-2--------2-4-------2-----4-4--2-4-------2----------2----------5-5-5-5-4-4-4-4-|

G|---------------------------------------------------|
D|---------------------------------------------------|
A|-0-0--0-0-0--0--2-2--2-2-2--2----------------------|
D|------------------------------4-4--4-4-4--4-4-4--4-|

G|---------------------------------------------------------|
D|---------------------------------------------------------|
A|-0-0--0-0-0--0--2-2--2-2-2--2--9-9--9-9-9--9--7-7--7-7-7-|
D|---------------------------------------------------------|

G|------------------------------------|
D|------------------------------------|
A|------------------------------------|
D|-7-7-7-7-7-7-7-7-4-4-4-4-4-4-4-4-2~-|

G|------------------------------------|
D|------------------------------------|
A|------------------------------------|
D|-5-5-5-5-5-5-5-5-4-4-4-4-4-4-4-4-2~-|
[ Tab from: http://www.guitartabs.cc/tabs/t/the_departure/dirty_words_btab.html ]
X6
G|--------------------------------------------------|
D|--------------------------------------------------|
A|--------------------------------------------------|
D|-14/2-2-2---14-14-14--14/2-2---14-14-14--14-14-14-|

G|---------------------------------------------------|
D|---------------------------------------------------|
A|-0-0--0-0-0--0--2-2--2-2-2--2----------------------|
D|------------------------------4-4--4-4-4--4-4-4--4-|

G|---------------------------------------------------------|
D|---------------------------------------------------------|
A|-0-0--0-0-0--0--2-2--2-2-2--2--9-9--9-9-9--9--7-7--7-7-7-|
D|---------------------------------------------------------

G|------------------------------------------------------|
D|---------------------------------2--2-2-4-5-5h7-5-4-5-|
A|------------------------------------------------------|
D|-7-7-7-7-7-7-7-7-4-4-4-4-4-4-4-4----------------------|

G|------------------------------------|
D|------------------------------------|
A|------------------------------------|
D|-7-7-7-7-7-7-7-7-4-4-4-4-4-4-4-4-2~-|

G|----------|
D|----------|
A|----------|
D|-2~----2~-|

G|---------------------------------------------|
D|---------------------------------------------|
A|-3-3--3-3-3-3--3--2-2--2-2-2--2--------------|
D|--------------------------------2-2--2-2-2-2-|

G|-----------------------------------------------|
D|-----------------------------------------------|
A|-3--3-3-3-3--2--2-2-2-2------------------------|
D|-------------------------2-2-2-2--2-2-2--2-2-2-|

G|---------------------------------------|
D|---------------------------------------|
A|-3--3-3-3-3--2--2-2-2-2----------------|
D|-------------------------2-2-2--2-2-2~-|