The Departure - Arms Around Me Chords & Tabs

 

Arms Around Me Chords & Tabs

The Departure Chords & Tabs

Version: 1 Type: Bass Tab

Arms Around Me Bass Tab

The Departure - Arms Around Me
www.thedeparture.co.uk
Tabbed by revolt! (onlysmartieshavetheanswer66@hotmail.com)

(00:15)

X2
G|----------------------------------------------------------------------------|
D|----------------------------------------------------------------------------|
A|-------------------------------------------------------9---12-11h12po11-9-7-|
D|-4-4-4-4-4-4-4-4-7-7-7-7-7-7-7-7-9-9-9-9-9-9-9-9-9-9-9---9------------------|

X1
G|------------------------------------------------------------------|
D|------------------------------------------------------------------|
A|-9-9-----------------------------------------9---12-11h12po11-9-7-|
D|-----4--4--4--7--7--7--7-7h9-9--9-9-9--9-9-9---9------------------|

X1
G|------------------------------------------------------------------|
D|------------------------------------------------------------------|
A|-9-9-----------------------------------------9---12-11h12po11-9-7-|
D|-----4--4--4--2--2--2--2-7h9-9--9-9-9--9-9-9---9------------------|

X1
G|-----------------------------|
D|-----------------------------|
A|-5--5-5--5-5-5-5--5-5--5-5-7-|
D|-----------------------------|

X1
G|------------------------------------------------------------------|
D|------------------------------------------------------------------|
A|-9-9-----------------------------------------9---12-11h12po11-9-7-|
D|-----4--4--4--7--7--7--7-7h9-9--9-9-9--9-9-9---9------------------|

X1
G|------------------------------------------------------------------|
D|------------------------------------------------------------------|
A|-9-9-----------------------------------------9---12-11h12po11-9-7-|
D|-----4--4--4--2--2--2--2-7h9-9--9-9-9--9-9-9---9------------------|

X1
G|---------------------------------------------------------------------------------------|
D|---------------------------------------------------------------------------------------|
A|-5--5-5--5-5-5-5--5-5--5-5-5-5--5-5--5-5--5-5-5-5--5-5--5-5-5-5--5-5--5--5-5-4-4-2-2-0-|
D|---------------------------------------------------------------------------------------|

X1
G|----------------------------------------------------------------------|
D|----------------------------------------------------------------------|
A|-------------------------------------------------9---12-11h12po11-9-7-|
D|-2h4-4--2h4-4--4h7-7--4h7-7--7h9-9--7h9-9--7h9-9---9------------------|

X2
G|--------------------------------------------------------------------|
D|--------------------------------------------------------------------|
A|-----------------------------------------------9---12-11h12po11-9-7-|
D|-4-4--2h4-4--4h7-7--4h7-7--7h9-9--7h9-9--7h9-9---9------------------|

X1
G|------7--4--4-4----|
D|-------------------|
A|-5--5--5--4-----2~-|
D|-------------------|

X1
G|----------------------------------------------------------------------------|
D|----------------------------------------------------------------------------|
A|-------------------------------------------------------9---12-11h12po11-9-7-|
D|-4-4-4-4-4-4-4-4-7-7-7-7-7-7-7-7-9-9-9-9-9-9-9-9-9-9-9---9------------------|
[ Tab from: http://www.guitartabs.cc/tabs/t/the_departure/arms_around_me_btab.html ]
X1
G|------------------------------------------------------------------|
D|------------------------------------------------------------------|
A|-9-9-----------------------------------------9---12-11h12po11-9-7-|
D|-----4--4--4--7--7--7--7-7h9-9--9-9-9--9-9-9---9------------------|

X1
G|------------------------------------------------------------------|
D|------------------------------------------------------------------|
A|-9-9-----------------------------------------9---12-11h12po11-9-7-|
D|-----4--4--4--2--2--2--2-7h9-9--9-9-9--9-9-9---9------------------|

X1
G|-----------------------------|
D|-----------------------------|
A|-5--5-5--5-5-5-5--5-5--5-5-7-|
D|-----------------------------|

X1
G|------------------------------------------------------------------|
D|------------------------------------------------------------------|
A|-9-9-----------------------------------------9---12-11h12po11-9-7-|
D|-----4--4--4--7--7--7--7-7h9-9--9-9-9--9-9-9---9------------------|

X1
G|------------------------------------------------------------------|
D|------------------------------------------------------------------|
A|-9-9-----------------------------------------9---12-11h12po11-9-7-|
D|-----4--4--4--2--2--2--2-7h9-9--9-9-9--9-9-9---9------------------|

X1
G|---------------------------------------------------------------------------------------|
D|---------------------------------------------------------------------------------------|
A|-5--5-5--5-5-5-5--5-5--5-5-5-5--5-5--5-5--5-5-5-5--5-5--5-5-5-5--5-5--5--5-5-4-4-2-2-0-|
D|---------------------------------------------------------------------------------------|

X1
G|----------------------------------------------------------------------|
D|----------------------------------------------------------------------|
A|-------------------------------------------------9---12-11h12po11-9-7-|
D|-2h4-4--2h4-4--4h7-7--4h7-7--7h9-9--7h9-9--7h9-9---9------------------|

X2
G|--------------------------------------------------------------------|
D|--------------------------------------------------------------------|
A|-----------------------------------------------9---12-11h12po11-9-7-|
D|-4-4--2h4-4--4h7-7--4h7-7--7h9-9--7h9-9--7h9-9---9------------------|

X1
G|------7--4--4-4----|
D|-------------------|
A|-5--5--5--4-----2~-|
D|-------------------|

X2
G|--------------|
D|--------------|
A|-5~---2~------|
D|-----------4~-|

X1
G|-----------------------------------------------------------------|
D|-----------------------------------------------------------------|
A|-5-5-5-5-5-5-5-5-2-2-2-2-2-2-2-2---------------------------------|
D|---------------------------------4-4-4-4-4-4-4-4-4-4-4-4-4-4-4-4-|

X1
G|------------------------------------|
D|------------------------------------|
A|-5-5-5-5-5-5-5-5-7-7-7-7-7-7-7-7-2~-|
D|------------------------------------|

X5
G|----------------------------------------------------------------------------|
D|----------------------------------------------------------------------------|
A|-------------------------------------------------------9---12-11h12po11-9-7-|
D|-4-4-4-4-4-4-4-4-7-7-7-7-7-7-7-7-9-9-9-9-9-9-9-9-9-9-9---9------------------|

X1
G|------7--4--4-4----|
D|-------------------|
A|-5--5--5--4-----2~-|
D|-------------------|