The Deleted - Blind Ambition Chords & Tabs

 

Blind Ambition Chords & Tabs

The Deleted Chords & Tabs

Version: 1 Type: Tab 0 ratings
1 star 2 stars 3 stars 4 stars 5 stars
comments

Blind Ambition Tab

This is from the yugioh movie soundtrack. 
I couldn't get the bridge or the solo but
I'll do it if i ever feel like it which
won't be for awhile :P.

Verse: Palm muted first time then strummed 
|--------------------------------------|
|--------------------------------------|
|--9--------------------------9--------|
|--9-(x8)-9--------7----------9-(x8)---|
|--7------9-(x8)---7-(x8)-----7--------|
|---------7--------5-------------------|
[ Tab from: http://www.guitartabs.cc/tabs/t/the_deleted/blind_ambition_tab.html ]
Chorus: I'm subtraction by addition..
|-----------------------------|
|-----------------------------|
|------4-44-2-22-5-55---------|
|-2-22-4-44-2-22-5-55---------|
|-2-22-2-22-0-00-3-33---------|
|-0-00------------------------|

Chorus Continued: Just another boy..
|----------------------------|
|----------------------------|
|-13-11-9-8-6-8-9-4----------|
|-13-11-9-8-6-8-9-4----------|
|-11-9--7-6-4-6-7-2----------|
|----------------------------|

Other Thing: Oh-oh-oh-oh..
|---------------12-----------------|
|-12-10-9-10-12----9-10-12-10-9-10-|
|----------------------------------|
|----------------------------------|
|----------------------------------|
|----------------------------------|

That's it basically.
Comments