The Darkness - One Way Ticket Sitar Solo Chords & Tabs

 

One Way Ticket Sitar Solo Chords & Tabs

The Darkness Chords & Tabs

Version: 1 Type: Tab 1 rating
1 star 2 stars 3 stars 4 stars 5 stars
comments

One Way Ticket Sitar Solo Tab

Title: One Way Ticket
Artist: The Darkness
Album: One Way Ticket to Hell...And Back
---------------------------------------------------------------------------------------------------
Okay guys this is my first tab, so excuse me if anything's wrong. I'm really surprised 
that I could figure out this whole sitar solo by ear, but there are still a few notes that are
"iffy". There aren't any weird tunings or anything, and I'm pretty sure it's in the same key 
that the original song is recorded in, so you should be pretty pleased. Just listen to the 
recording to figure out the precise timing of each note, etc. etc.

solo
e|--9--7--9---------|--------------------|-----------------|------------|
B|----------9-----7-|----5----------6----|-----------------|------------|
G|------------------|---------6--7-----7-|-6---------------|------------|
D|------------------|--------------------|-----/6----4-----|------------|x2
A|------------------|--------------------|---------------7-\-2-3-4------|
E|------------------|--------------------|-----------------|------------|

[ Tab from: http://www.guitartabs.cc/tabs/t/the_darkness/one_way_ticket_sitar_solo_tab.html ]
|--------------------8/9---11-12-|-12p11---9-----9-----------------------|
|---------------8p9--------------|-----------12-----9p7------------------|
|----------8h9--8p9--------------|----------------------9-----9/11---9---|
|--11p10---8h9-------------------|-------------------------11------------|
|--11p10-------------------------|---------------------------------------|
|--------------------------------|---------------------------------------|


|-------7------7-----9----12---16-|-16p14--12-----12/14---------|
|--7/9------9-----9---------------|-----------14--------12/14---|
|---------------------------------|-----------------------------|
|---------------------------------|-----------------------------|
|---------------------------------|-----------------------------|
|---------------------------------|-----------------------------|


|-8/9---8/9----------------|------------------------------|
|-8/9---8/9--8/9-----------|-9---11----9----11-----9------|
|------------8/9--8h9p8h9--|-9---11----9----11-----9------|
|-----------------8h9p8h9--|------------------------------|
|--------------------------|------------------------------|
|--------------------------|------------------------------|



|--12p11--9--------9----------------------------------------------|
|-------------12-------12---9\7-5---5/7--5--------6---------------|
|---------------------------------6---------6--7-----7---6v~~~~~~-|
|-----------------------------------------------------------------|
|-----------------------------------------------------------------|
|-----------------------------------------------------------------|


So just keep practicing it and get it to go as fast as you can. It's probably okay if you skip a 
note or two. Again, listen to the song and check out the timing of all the notes. Full song tab
coming pretty soon!
Comments