The Darkness - I Believe In A Thing Called Love Chords & Tabs

 

I Believe In A Thing Called Love Chords & Tabs

The Darkness Chords & Tabs

Version: 2 Type: Tab 3 ratings
1 star 2 stars 3 stars 4 stars 5 stars
comments

I Believe In A Thing Called Love Tab

The Darkness - I believe in a thing called love

Tabbed by Tony Bowler 


Intro

----------------|-----------------|--------------------|
----------------------------------|--------------------|
----------------|-----------------|--------------------|
4----------7--9-|9---------9----2-|2----9--9---------7-|
4----------7--9-|9---------9----2-|2----9--9---------7-|
2----------5--7-|7---------7----0-|0----7--7---------5-|

----------------------|
----------------------|
----------------------|
7---------------------|
7---------0-2-4-------|
5-----4---------0-----|


Verse

----------------|-----------------|--------------------|
----------------|-----------------|--------------------|
----------------|-----------------|--------------------|
4----------7--9-|9---------9----2-|2----9--9---------7-|
4----------7--9-|9---------9----2-|2----9--9---------7-|
2----------5--7-|7---------7----0-|0----7--7---------5-|


-----------------------------|
-----------------------------|
-----------------------------|
7----------------------------|
7---------0-2-4--------------|
5-----4---------0------------|




----------------|------------------|------------------|
----------------|------------------|------------------|
----------------|------------------|------------------|
4----------7--9-|9----------9----2-|2----9--9-------7-|
4----------7--9-|9----------9----2-|2----9--9-------7-|
2----------5--7-|7----------7----0-|0----7--7-------5-|

[ Tab from: http://www.guitartabs.cc/tabs/t/the_darkness/i_believe_in_a_thing_called_love_tab_ver_2.html ]
-----------------------------|
-----------------------------|
-----------------------------|
7----------------------------|
7---------0------------------|
5-----4------4-2-0-----------|



------------------|-------------|--------------------|
------------------|-------------|--------------------|
------------------|-------------|--------------------|
2--4--------------|-------------|2--4----------------|
2--4--------------|-------------|2--4----------------|
0--2--------------|-------------|0--2----------------|


-----------------------------|
-----------------------------|
-----------------------------|
2--4-----------7--8----------|
2--4-----------7--8----------|
0--2-----------5--6----------|
					



				Chorus (riff 3 times)	

------------------|-----------||--------------------|
------------------|-----------||--------------------|
------------------|-----------||--------------------|
9-9-9-9-9-9-9-9---|9-9-9-9-9--||--------------------|
9-9-9-9-9-9-9-9---|9-9-9-9-9--||------0-------------|
7-7-7-7-7-7-7-7---|7-7-7-7-7--||0-2-4---4--0--2-----|







				then

--------------------||------------------|-----------|
--------------------||------------------|-----------|
--------------------||6----------4---6--|7------7-7-|
--------0--2--4--2--||6----------4---6--|7------7-7-|
---4----------------||4----------2---4--|5------5-5-|
--------------------||------------------|-----------|

No solos I'm afraid.    Enjoy!












Comments