The Darkness - I Believe In A Thing Called Love Chords & Tabs

 

I Believe In A Thing Called Love Chords & Tabs

The Darkness Chords & Tabs

Version: 1 Type: Tab 2 ratings
1 star 2 stars 3 stars 4 stars 5 stars
comments

I Believe In A Thing Called Love Tab

   
Artist: The Darkness
Track: I Believe In A Thing Called Love
Album: Permision To Land
Tabbed by Tom Setterfield

Intro & Verse:

e|-------------------------------|
B|-------------------------------|
G|-------------------------------|
D|-4-7-9-9-9-9-2-9-9-7-7-6-7-7-9-|
A|-4-7-9-9-9-9-2-9-9-7-7-6-7-7-9-|
E|-2-5-7-7-7-7-0-7-7-5-5-4-5-5-7-|

Bridge:
[ Tab from: http://www.guitartabs.cc/tabs/t/the_darkness/i_believe_in_a_thing_called_love_tab.html ]
e|-------------------|
B|-------------------|
G|-------------------|
D|-2-4-2-4-2-4-7-9-9-|
A|-2-4-2-4-2-4-7-9-9-|
E|-0-2-0-2-0-2-5-7-7-|

Chorus riff:

e|-------------------------|
B|-------------------------|
G|-------------------------|
D|-------------------------|
A|-------------------2-4-2-|
E|-0-2-4-5-4-2-2-4-5-------|


This is my first ever tab, and it sounds perfect! 
Work the rhythm out for yourself, and let us know what you think!

setto_uk@hotmail.com
Comments