The Darkness - I Believe In A Thing Called Love Solos 1 2 Correct Chords & Tabs

 

I Believe In A Thing Called Love Solos 1 2 Correct Chords & Tabs

The Darkness Chords & Tabs

Version: 1 Type: Tab 0 ratings
1 star 2 stars 3 stars 4 stars 5 stars
comments

I Believe In A Thing Called Love Solos 1 2 Correct Tab

Artist: the darkness
Song name: I believe in a thing called love
Tabbed by: Chris Gibson (chrisgibson519@hotmail.com)

Solo 1

e---------------------------16b-r-------------------------------------
B--------17-----17--------------17----------16b-------------------
G---17b---17b---r17b------------16b-r---------------------------
D-------------------------------------------14------------------------
A---------------------------------------------------------------------
E-----------------------------------------------------------------------

Solo 2
[ Tab from: http://www.guitartabs.cc/tabs/t/the_darkness/i_believe_in_a_thing_called_love_solos_1_2_correct_tab.html ]
e-0-0-0-0-0-0-0-0--------7----7------------------------------------
B-5-5-5-5-5-5-5-5/7-7b--7b---r7b-5h7p5---------------------
G-------------------------------------------------8-6-4-----4b(v)--
D--------------------------------------------------------6-7---------
A--------------------------------------------------------------------
E---------------------------------------------------------------------

e----------------------------------------------------------------------------
B-------------------------------------5--------------------------------------
G----------------------------------------8-6-4------4/13(v)13-12(v)-12
D-4h6-4h6----2h4-2h4/6-4----------------6-7--------------------------
A-------------7------------------7-------------------------------------------
E--------------------------------------0(let ring)--------------------------

E------------------------------------------------------------------------------
B------------------------------------------------------------------------------
G-18p16----18p16---------------------------------------------------------
D---------18---------18-16-----------16---------------------------------
A------------------------------19-16-19----19b----------------------------
E------------------------------------------------------------------------------

Comments