The Darkness - I Beleive In A Thing Called Love Chords & Tabs

 

I Beleive In A Thing Called Love Chords & Tabs

The Darkness Chords & Tabs

Version: 2 Type: Tab 0 ratings
1 star 2 stars 3 stars 4 stars 5 stars
comments

I Beleive In A Thing Called Love Tab

The Darkness - I beleive in a thing calles love



e|----------------------------------------------
b|----------------------------------------------
g|-----------2--4-4---4------4-4----------4-6---
d|---4-------2--4-4---4--2---4-4--7-7-6-7-4-6-2-         (in the begin of the song you must play this 3 times)
a|---4-------0--2-2---2--2---2-2--7-7-6-7-2-4-2-
d|---2-------------------0--------5-5-4-5-----0-


e|-----------------------------------------------
b|-----------------------------------------------
g|-----------2--4-4---4------4-4-----------------
d|---4-------2--4-4---4--2---4-4--7-7-6-7-6-4-2--
a|---4-------0--2-2---2--2---2-2--7-7-6-7-6-4-2--
d|---2-------------------0--------5-5-4-5-4-2-0--

(you can play tis trought the whole song except with the corrus)


corrus:
e|---------------------------------------------------------------
b|---------------------------------------------------------------
g|---------------------------------------------------444444444444
d|----2-4-44444444--2-4-44444444--2-4-44444444-------444444444444
a|----2-4-44444444--2-4-44444444--2-4-44444444-------222222222222
d|----0-2-22222222--0-2-22222222--0-2-22222222-------------------

[ Tab from: http://www.guitartabs.cc/tabs/t/the_darkness/i_beleive_in_a_thing_called_love_tab_ver_2.html ]
e|-----------------------------------------------------------------------------------
b|-----------------------------------------------------------------------------------
g|-----------------------------------------------------------------------------------
d|-----------------------------------------------------------------------------------
a|---------0---------2-4-2---------0---------2-4-2---------0---------2-4-2--4-2------
d|---0-2-4---4-2-2-4---------0-2-4---4-2-2-4---------0-2-4---4-2-2-4------------4-2-0

Then you play the same as you did and do this until the end of the song.

e|----------------------------------------------
b|----------------------------------------------
g|-----------2--4-4---4------4-4----------4-6---
d|---4-------2--4-4---4--2---4-4--7-7-6-7-4-6-2-
a|---4-------0--2-2---2--2---2-2--7-7-6-7-2-4-2-
d|---2-------------------0--------5-5-4-5-----0-


e|-----------------------------------------------
b|-----------------------------------------------
g|-----------2--4-4---4------4-4-----------------
d|---4-------2--4-4---4--2---4-4--7-7-6-7-6-4-2--
a|---4-------0--2-2---2--2---2-2--7-7-6-7-6-4-2--
d|---2-------------------0--------5-5-4-5-4-2-0--

corrus








Have fun with it

Greeting of the 

Playing Dutchman
Comments