The Darkness - Get Your Hands Off My Woman Chords & Tabs

 

Get Your Hands Off My Woman Chords & Tabs

The Darkness Chords & Tabs

Version: 2 Type: Tab 0 ratings
1 star 2 stars 3 stars 4 stars 5 stars
comments

Get Your Hands Off My Woman Tab

   
Artist: THE DARKNESS

Title:  GET YOUR HANDS OFF MY WOMAN

ususal notation:
: slide down
/: slide up
h: hammer on
p: pull off
m: palm mute
b: full bend



Starts with this Dm chord

e|-0-|
B|-6-|
G|-7-|
D|-7-|let this ring out
A|-5-|
E|---|



                          MAIN RIFF/CHORUS:

e|----------------------------------------------------------------------------|
B|----------------------------------------------------------------------------|
G|-7-7------------5-5---------------7-7------------5-5--5---5-6-7-7-----------|
D|-7-7--8-8-3-3--5-5--3/-5-5-3-3--7-7--8-8-3-3--5-5--5---5-6-7-7--8-8--3-3-|
A|-5-5--8-8-3-3--3-3--3/-5-5-3-3--5-5--8-8-3-3--3-3--3-0-3-4-5-5--8-8-3-3-|
E|------6-6-1-1-------1/-3-3-1-1-------6-6-1-1--------------------6-6-1-1-|

e|----------------------------------------------|
B|----------------------------------------------|
G|-5-5---------------7-7-----------5-5--5---5-6-|
D|-5-5--3/-5-5-3-3--7-7-8-8-3-3--5-5--5---5-6-|
A|-3-3--3/-5-5-3-3--5-5-8-8-3-3--3-3--3-0-3-4-|
E|------1/-3-3-1-1------6-6-1-1---------------|



                          then to VERSE 1:

e|---------------------------------------------------------------------|
B|---------------------------------------------------------------------|
G|7-----7-----7-----7-----7---7---7-----7-----7-----7------------------|
D|--0-0---0-0---0-0---0-0---0---0---0-0---0-0---0-0---0--3/-5-5-3-3---| repeat this
A|-------------------------------------------------------3/-5-5-3-3---|
E|-------------------------------------------------------1/-3-3-1-1---|

                           BRIDGE:

e|-------------------------------------------------------|
B|-------------------------------------------------------|
G|-------------------------------------------------------|
D|-3-5-5-3-5--------------------------------3-5-5-3-5----|
A|-3-5-5-3-5--------------------------------3-5-5-3-5----|
E|-1-3-3-1-3--------------------------------1-3-3-1-3----|
	     I got no right...           ...her frame, she's not..... 	


e|--------3----------------------------|
B|--------3----------------------------|
G|--------0--------------------3-4-5-6-|
D|--------0--------2--3--4-5-6-3-4-5-6-|
A|-----------------2--3--4-5-6-1-2-3-4-|
E|--------3---------1--2-3-4---------|
  you c***!!!      
  

                          CHORUS:                            

[ Tab from: http://www.guitartabs.cc/tabs/t/the_darkness/get_your_hands_off_my_woman_tab_ver_2.html ]
e|----------------------------------------------------------------------------|
B|----------------------------------------------------------------------------|
G|-7-7------------5-5---------------7-7------------5-5--5---5-6-7-7-----------|
D|-7-7--8-8-3-3--5-5--3/-5-5-3-3--7-7--8-8-3-3--5-5--5---5-6-7-7--8-8--3-3-|
A|-5-5--8-8-3-3--3-3--3/-5-5-3-3--5-5--8-8-3-3--3-3--3-0-3-4-5-5--8-8-3-3-|
E|------6-6-1-1-------1/-3-3-1-1-------6-6-1-1--------------------6-6-1-1-|

e|----------------------------------------------|
B|----------------------------------------------|
G|-5-5---------------7-7-----------5-5--5---5-6-|
D|-5-5--3/-5-5-3-3--7-7-8-8-3-3--5-5--5---5-6-|
A|-3-3--3/-5-5-3-3--5-5-8-8-3-3--3-3--3-0-3-4-|
E|------1/-3-3-1-1------6-6-1-1---------------|


                        VERSE 2 (sligtly different to verse 1)


e|---------------------------------------------------------------------|
B|---------------------------------------------------------------------|
G|7-----7-----7-----7-----7---7---7-----7-----7-----7------------------|
D|--0-0---0-0---0-0---0-0---0---0---0-0---0-0---0-0---0--3/-5-5-3-3---| 
A|-------------------------------------------------------3/-5-5-3-3---|
E|-------------------------------------------------------1/-3-3-1-1---|


e|-------------------------------------------------------------------|
B|-------------------------------------------------------------------|
G|-------------------------------------------------------------------|
D|-7-7-7-7-7-7-7-7-7-7-7-7-7-7-7-7-7-7-7-7-7-7-7-7-7-7-7-10-12-12-10-|  X2
A|-5-5-5-5-5-5-5-5-5-5-5-5-5-5-5-5-5-5-5-5-5-5-5-5-5-5-5-8--10-10-8--|
E|-------------------------------------------------------------------|
     m m   m m   m m   m m   m   m   m m   m m   m m   m                  
 
then to 

             BRIDGE

             CHORUS


				SOLO:


e|-----------------------------------------------------------------|
B|-----------------------------------------------------------------|
G|-3p0-----3p0-3p0-----3p0-3p0-----3p0-----3p0-3p0-----3p0-3p0-----|
D|-----3p0---------3p0---------3p0-----3p0---------3p0---------3p0-|
A|-----------------------------------------------------------------|
E|-----------------------------------------------------------------|

e|-----------------------------------------------------------------|
B|-----------------------------------------------------------------|
G|-4p0-----4p0-4p0-----4p0-4p0-----4p0-----4p0-4p0-----4p0-4p0-----|
D|-----3p0---------3p0---------3p0-----3p0---------3p0---------3p0-|
A|-----------------------------------------------------------------|
E|-----------------------------------------------------------------|


e|-6-----------------------------------------------------10--|
B|-3--3-3---3-3-3-3---5----6----7---8----9---10-11-12-13-13b-|
G|-5b-5-3---3-3-3-5b--7b---8b---9b--10b--11b-----------------|
D|--------5--------------------------------------------------|
A|-----------------------------------------------------------|
E|-----------------------------------------------------------|

And back to the CHORUS



tabbed by 
Comments