The Darkness - Friday Night With Solo Chords & Tabs

 

Friday Night With Solo Chords & Tabs

The Darkness Chords & Tabs

Version: 1 Type: Tab 0 ratings
1 star 2 stars 3 stars 4 stars 5 stars
comments

Friday Night With Solo Tab

   
Another great tab by Luc Morris

intro/main lick guitar 1

e-------------------------------------------|---------------------------------
b---9---------------------------------------|---------------------------------
g---9----9--8p-6-----6----------------9-9-8-|-8-8-8-8-8-8-8-8-8-8-8-8-8-------
d---9--------------9---7--7p-6--7p-6--------|-9-9-9-9-9-9-9-9-9-9-9-9-9-------
a---7---------------------------------------|-9-9-9-9-9-9-9-9-9-9-9-9-9-------
E-------------------------------------------|-7-7-7-7-7-7-7-7-7-7-7-7-7-------


Verse chords

B major,  G# minor,  A major,  F# Minor

Chorus

E major, C# minor, A major, B major 

Verse

Chorus



Lick guitar one


    E                                        B  
e----------------------------------------------------------------------
b---------------------------------------------------7------------------
g-------9--8p-6-----6------------------9-9-8----------8----------------
d-----------------9----7---7p-6--7p-6------------7------7--------------     X2
a---7------------------------------------------9----------9------------    
E--------------------------------------------7-------------------------

then on top (harmony guitar 2)
                                               |1.          | 2.
e-------------------------------------         |------------|--------------------
b-----------9--7p-5----5--------------         |--9-9-7-----|--9-9-9s/-12--------
g--------9-----------8---6--6p-4-6p-4-         |------------|--------------------
d-------------------------------------         |---------9--|--------------------
a-------------------------------------  X2     |------------|--------------------
E-------------------------------------         |------------|--------------------


Chorus


outro
e-------------------------------------      |--------|---------------------------        
b-----------9--7p-5----5--------------      |-9-9-7--|-9-9s/-12--9-7h-9p-7-------         
g--------9-----------8---6--6p-4-6p-4-      |--------|---------------------8-8b-9        
d-------------------------------------      |--------|---------------------------         
a-------------------------------------  X2  |--------|---------------------------     
E-------------------------------------      |--------|---------------------------



[ Tab from: http://www.guitartabs.cc/tabs/t/the_darkness/friday_night_with_solo_tab.html ]
sorry about the actuall solo im sort of still working on that. But ill post it as soon as i get it done.




UPDATE
======
got the solo for friday night like i promised

here it is

SOLO

e------------------------------------------------------------------
b---9s/12---12--10--9--9h10p9--------------------------------------
g------------------------------11--9--(13)BD-11--9-(13)BD-11-------
d------------------------------------------------------------------
a------------------------------------------------------------------
E------------------------------------------------------------------


e----------------0-0-2p0-4p0-5p0-4p0-7-------19-17-16-19-19-19-----
b--------------------------------------------21-19-17-21-21-21-----
g-(13)BD-11--------------------------------------------------------
d------------9-----------------------------------------------------
a------------------------------------------------------------------
E------------------------------------------------------------------


e------------------------------------------------------------------
b---19h-21p-19--17h-19p-17--16h-17p-16--14h-16p-14--12h-14p-12-----
g------------------------------------------------------------------
d------------------------------------------------------------------
a------------------------------------------------------------------
E------------------------------------------------------------------


e------------------------------------------------------------------
b--10h-12p-10--9h-10p-9--7h-9p-7-----9--7p-5---5-------------------
g----------------------------------9---------8---6--6p-4-6p-4------
d------------------------------------------------------------------
a------------------------------------------------------------------
E------------------------------------------------------------------


e------------------------------------------------------------------
b-9-9-7-------9--7p-5---5--------------9s/-12--9--7h-9p-7----------
g-----------9---------8---6--6p-4-6p-4--------------------8-8BU-(9)
d------------------------------------------------------------------
a------------------------------------------------------------------
E------------------------------------------------------------------

well thats it thanks

Luc Morris


Key
==============================
s/ - slide up                #
s - slide down               #
BD - bend down (ghost bend)  #
BU - bend up                 #
h - hammer on                #
p - pull off                 #
==============================
Comments