The Darkness - Friday Night Chords & Tabs

 

Friday Night Chords & Tabs

The Darkness Chords & Tabs

Version: 1 Type: Tab 0 ratings
1 star 2 stars 3 stars 4 stars 5 stars
comments

Friday Night Tab

The Darkness
Friday Night


Intro
E--0----0-----------------------0-0--------------------------------------
B--0-------4p2p0-2------0-------------4--4---4-4-4-4-4-4-4-4-4-4-4-------
G--1---------------2----2p1-2p1----------4---4-4-4-4-4-4-4-4-4-4-4-------
D--2--------------------2-----------2----4---4-4-4-4-4-4-4-4-4-4-4-------
A--2--------------------0----------------2---2-2-2-2-2-2-2-2-2-2-2-------
E--0---------------------------------------------------------------------


Verse 1
E---------------------------------------5-0----------2---------------------
B------4----4--4--------------------0-------0---0----2---------------------
G------4----4--4-------4------4--4--6---------6------2------------4-----4--
D------4----4--4----6--6---6--6--6--7-------------6--4---4-2--4h6---4h6-4--
A---0--2----2--2----6------6--------7--------------------------------------
E--------------------------------------------------------------------------

E-------------------------------5-0----------2------------2----
B---4--4--------------------0-------0---0----2--2-4---5--------
G---4--4-------4------4--4--6---------6------2------2---2---2--
D---4--4----6--6---6--6--6--7-------------6--4-----------------
A---2--2----6------6--------7----------------------------------
E--------------------------------------------------------------


Chorus
E----------------------4---4--5---4-5-----4---4--5---4-5-----0---0--0---0-0--|
B---9----10---9-10-----5---5--5---5-5-----5---5--5---5-5-----7---7--7---7-7--| repeat
G---9----9----9-9------4---4--4---4-4-----4---4--4---4-4-----8---8--8---8-8--| once
D---9----9----9-9------6---6--6---6-6-----x---x--x---x-x-----9---9--9---9-9--|
A---7----7----7-7------4---4--4---4-4-----0---0--0---0-0---------------------|
E----------------------------------------------------------------------------|


Verse 2
E-----------------------------------5-0----------2---------------------
B---4----4--4----5---5-4--4-5---0-------0---0----2---------------------
G---4----4--4----4---4-4--4-4---6---------6------2------------4-----4--
D---4----4--4----6---6-6--6-6---7-------------6--4---4-2--4h6---4h6-4--
A---2----2--2----6---6-6--6-6---7--------------------------------------
E----------------------------------------------------------------------

E------------------------------5-0----------2------------2--------
B---4--4----5---5-4--4-5---0-------0---0----2--2-4---5------------
G---4--4----4---4-4--4-4---6---------6------2------2---2---2------
D---4--4----6---6-6--6-6---7-------------6--4---------------------
A---2--2----6---6-6--6-6---7--------------------------------------
E-----------------------------------------------------------------


Chorus


Solo
                                                      (1)
E-------0----------------------0-0-------------2-------|----0------------
B--0--0----4p2p0-2-------------------4-------4---4-----|--0----4p2p0-2---
G--1---------------2---2/1-2p1-------------2-------2---|---------------2-
D--2-------------------------------2-----4-----------4-|2----------------
A--2-----------------------------------2---------------|-----------------
E--0---------------------------------------------------|-----------------
[ Tab from: http://www.guitartabs.cc/tabs/t/the_darkness/friday_night_tab.html ]
                                  (2) 
E----------0-0-------------2-------|----0---------------------0-0--------
B----------------4-------4---4-----|--0----4p2p0-2-----------------/7----
G--2/1-2p1-------------2-------2---|---------------2--2/1-2p1------------
D--------------2-----4-----------4-|2------------------------------------
A------------------2---------------|-------------------------------------
E----------------------------------|-------------------------------------


Guitar 2 - Starts at the repeat of (1) to (2) on Guitar 1.
E------------------------------------------------------------------------
B--------9-------------------------------9-9-------------------------9---
G-------------11p98--9-----------------------11-------------------------
D--6---------------------11----11p9-11p9------------(9)(9)--6b7b6--------
A------------------------------------------------------------------------
E------------------------------------------------------------------------

E-----------------------------------------
B----------------------------9-9--/12-----
G--11p98--9------------------------------
D------------11----11p9-11p9--------------
A-----------------------------------------
E-----------------------------------------


End solo
------------------------------------------------------------------------
--9/12--12p9--12p9------------------------------------------------------
----------------------------11p9--11p9-------11br--9--11--11br--11v-----
-----------------------------------------11-----------------------------
------------------------------------------------------------------------
------------------------------------------------------------------------

--------------------------------------------------------------------
------------------7-7-9-7-7/9-9-9-11-9/12-----16b-x-16b-x-16b--16v--
------9--11---------------------------------------------------------
-11-----------------------------------------------------------------
---------------------------------------------------------------------
---------------------------------------------------------------------

------------------------------------------------------------------------
--14-14-17-14-----------------------------------------------------------
------------------14-14-16-14------------------------11-----------------
-----------------------------------14/9/11--11br-9------11b-11br-11v----
------------------------------------------------------------------------
------------------------------------------------------------------------

------------------------------------------------------------------------
-----------------------------------------------------------------------
-11br-11br-11b-11b-11v----------------------11br 11br--11vv------------
----------------------------11--9--11--9------------------------------
-----------------------------------------------------------------------
----------------------------------------------------------------------

-----------------------------------------------------------------------------
-----------------------------------------------------------------------------
-------9--11--9-9-11----------------------------11--11-9-11------9vvvv-------
--11---------------------11v----11--9--11--9-------------------11------------
-----------------------------------------------------------------------------
-----------------------------------------------------------------------------





Yost with the Most
Comments