The Darkness - Friday Night Chords & Tabs

 

Friday Night Chords & Tabs

The Darkness Chords & Tabs

Version: 1 Type: Bass Tab 0 ratings
1 star 2 stars 3 stars 4 stars 5 stars
comments

Friday Night Bass Tab

   
The Darkness
friday night
Permission to land 

Standard E,A,D,G Tuning
Intro
|-----------------|-----------------|-----------------|
|-----------------|-----------------|-----------------|
|-----------------|-----------------|-----------------|
|-0---------------|-----------------|-5---------------|

|-----------------|-----------------|
|-----------------|-----------------|
|-2-2-2-2-2-2-2-2-|-2-2-2-2-2-------|
|-----------------|-----------------|

First Verse (hey you .. do you remember me? ...)
|-----------------|-----------------|-----------------|
|-----------------|-----------------|-----------------|
|--0-2--2--2-2----|-----------------|-----------------|
|-----------------|----4--4--4-4----|---5--5--5-5-4-2-|

|-----------------|
|-----------------|
|-----------------|
|-2--2-2----------|

(We indulged in ...)
|-----------------|-----------------|-----------------|
|-----------------|-----------------|-----------------|
|----2--2--2-2----|-----------------|-----------------|
|-----------------|----4--4--4-4----|---5--5--5-5-4-2-|

|-----------------|
|-----------------|
|-----------------|
|-2--2-2----------|

Chorus (Monday cycling..)
|-----------------|-----------------|-----------------|
|-2-----2-2-------|-----------------|-----------------|
|----2------------|--4-----4-4------|-----------------|
|-----------------|-----4-----------|--5--0--5-5------|

|-----------------|
|-----------------|
|-2-----2-2-------|
|----2------------|
[ Tab from: http://www.guitartabs.cc/tabs/t/the_darkness/friday_night_btab.html ]
(I've got Bridge Club on Wednesday...)
|-----------------|-----------------|-----------------|
|-2-----2-2-------|-----------------|-----------------|
|----2------------|--4-----4-4------|-----------------|
|-----------------|-----4-----------|--5--0--5-5------|

|-----------------|
|-----------------|
|-2-----2-2-------|
|----2------------|

Verse 2 (Hey you.. Could you ever fall for me?..)

Chorus

Solo (with you...)
|-----------------|-----------------|-----------------|
|-----------------|-----------------|-----------------|
|-----------------|-----------------|-----------------|
|-0---------------|-----------------|-----------------|

(Big gap with guitar fill and vocals)
|-----------------|-----------------|-----------------|
|-----------------|-----------------|-----------------|
|-----------------|-----------------|-----------------|
|-----------------|-----------------|-----------------|

(instruments come in)
|-----------------|-----------------|-----------------|
|-----------------|-----------------|-----------------|
|-----------------|-----------------|-----------------|
|-0---------------|-----------------|-5-------------2-|

|-----------------|-----------------|-----------------|
|-----------------|-----------------|-----------------|
|-----------------|-----------------|-----------------|
|-0---------------|-----------------|-5---------------|

|-----------------|
|-----------------|
|-2-2-2-2-2-2-2-2-|
|-----------------|

Chorus then:

Last verse (Oh See the lady I adore..)

That's pretty much it, the gaps in between the notes are proportional to
the time between each note. Enjoy. =)

Tabbed on 25/9/04 
E-mail Trapped_ina_bubble@hotmail.com
Comments