The Damned - Fan Club Chords & Tabs

 

Fan Club Chords & Tabs

The Damned Chords & Tabs

Version: 1 Type: Tab 0 ratings
1 star 2 stars 3 stars 4 stars 5 stars
comments

Fan Club Tab

   
Title: Fan Club
Artist: The Damned
by: Daniel Eilbeck
E~mail: Damned_dan@hotmail.com
Tune up in EADGBe 
Effects: bit of overdrive or clear
Chord type: Major

Intro and riff

Emin
-0----------------------------------------2---------------------------------
-0--------------------------------------------------------------------------
-0---------2--0--2--0------------2---------------4bend up---------
-2------------------------2--0--4-----------------------------------------		repeat 4x at start.But on the others reapeat twice and then move up
-2--------------------------------------------------------------------------		to 12th fret, so it becomes the same only at the 12 fret.
-0--------------------------------------------------------------------------
[ Tab from: http://www.guitartabs.cc/tabs/t/the_damned/fan_club_tab.html ]
verse: B		E(7th fret)	 	 C#	 (i think)
chorus bit: A 	 C(3rd fret)		  G	   B(2nd fret)
Riff
verse
Chorus
Riff
solo bit:
--12--12--12--12--13--13--14--14--15--15--16--16-----------------------------     (dont actually do each one note  twice i just wrote it like that
--15--15--14--14--15--15--16--16--17--17--18--18-----------------------------       because i cant be bothered to count how many times
------------------------------------------------------------------------------------------------       he does each one.  )
------------------------------------------------------------------------------------------------
------------------------------------------------------------------------------------------------
------------------------------------------------------------------------------------------------
verse
Chorus
then go mad with B
Comments