The Cribs - Mirror Kisses Chords & Tabs

 

Mirror Kisses Chords & Tabs

The Cribs Chords & Tabs

Version: 1 Type: Tab 0 ratings
1 star 2 stars 3 stars 4 stars 5 stars
comments

Mirror Kisses Tab

   
-------------------------------------------------------------------------------
			     Mirror Kisses - The Cribs
-------------------------------------------------------------------------------
Tabbed by: Qwaspy
Email: tecnox2000@hotmail.com

Tuning: Standard (EADGBe)

Intro

e|----x-x-x-x-x-x-x-x-x-x-x-x-x-x-x-x-----|
B|----9-9-9-9-9-x-9-x-x-x-x-9-9-9-x-9-----|
G|----8-8-8-8-8-x-8-x-x-x-x-8-8-8-x-8-----|  X6
D|----9-9-9-9-9-x-9-x-x-x-x-9-9-9-x-9-----|
A|----------------------------------------|
E|----------------------------------------|

e|----x-x-x-x-x-x-x-x-x-x-x-x-x-x-x-x--4-4-4-4-4-x-4-x-x-x-x-4-4-4-x-4--|
B|----7-7-7-7-7-x-7-x-x-x-x-7-7-7-x-7--4-4-4-4-4-x-4-x-x-x-x-4-4-4-x-4--|
G|----6-6-6-6-6-x-6-x-x-x-x-6-6-7-x-6--4-4-4-4-4-x-4-x-x-x-x-4-4-4-x-4--| 
D|----7-7-7-7-7-x-7-x-x-x-x-7-7-7-x-7--4-4-4-4-4-x-4-x-x-x-x-4-4-4-x-4--|
A|----------------------------------------------------------------------|
E|----------------------------------------------------------------------|


Chorus


e|----x-x-x-x-x-x-x-x-x-x-x-x-x-x-x-x--x-x-x-x-x-x-x-x-x-x-x-x-x-x-x-x--|  
B|----9-9-9-9-9-x-9-x-x-x-x-9-9-9-x-9--9-9-9-9-9-x-9-x-x-x-x-9-9-9-x-9--|
G|----8-8-8-8-8-x-8-x-x-x-x-8-8-8-x-8--8-8-8-8-8-x-8-x-x-x-x-8-8-8-x-8--|
D|----9-9-9-9-9-x-9-x-x-x-x-9-9-9-x-9--9-9-9-9-9-x-9-x-x-x-x-9-9-9-x-9--|
A|----------------------------------------------------------------------|
E|----------------------------------------------------------------------|

e|----x-x-x-x-x-x-x-x-x-x-x-x-x-x-x-x--4-4-4-4-4-x-4-x-x-x-x-4-4-4-x-4--|
B|----7-7-7-7-7-x-7-x-x-x-x-7-7-7-x-7--4-4-4-4-4-x-4-x-x-x-x-4-4-4-x-4--|
G|----6-6-6-6-6-x-6-x-x-x-x-6-6-7-x-6--4-4-4-4-4-x-4-x-x-x-x-4-4-4-x-4--|
D|----7-7-7-7-7-x-7-x-x-x-x-7-7-7-x-7--4-4-4-4-4-x-4-x-x-x-x-4-4-4-x-4--|
A|----------------------------------------------------------------------|Allx2
E|----------------------------------------------------------------------|


Verse
[ Tab from: http://www.guitartabs.cc/tabs/t/the_cribs/mirror_kisses_tab.html ]
e|----------------7--9b10-9b10--7--|       e|----------------7-7-7-7-x-x-x-x-x|
B|-------7--9--9-------------------|       B|-------7--9--9----------x-x-x-x-x|
G|---8h9---------------------------| X3    G|---8h9------------------x-x-x-x-x|
D|---------------------------------|       D|---------------------------------|
A|---------------------------------|       A|---------------------------------|
E|---------------------------------|       E|---------------------------------|


e|----------------7--9b10-9b10--7--|       e|----------------7-7-7-7-7-7-7-7-7|
B|-------7--9--9-------------------|       B|-------7--9--9-------------------|
G|---8h9---------------------------| X3    G|---8h9---------------------------|
D|---------------------------------|       D|---------------------------------|
A|---------------------------------|       A|---------------------------------|
E|---------------------------------|       E|---------------------------------|



Bridge 
 

e|-12-12-12-12-12-12-12-----14-16--------14-16--------|
B|--------------------------------14-12--------14-12--|
G|----------------------------------------------------| x2 
D|----------------------------------------------------|
A|----------------------------------------------------|
E|----------------------------------------------------|

e|-12-12-12-12-12-12-12---14-14-16-------14-16--------|
B|---------------------------------14-12-------14-12--|
G|----------------------------------------------------|  
D|----------------------------------------------------|
A|----------------------------------------------------|
E|----------------------------------------------------|

e|-12-12-12-12-12-12-12///////////////////////////21--|
B|----------------------------------------------------|
G|----------------------------------------------------|  
D|----------------------------------------------------|
A|----------------------------------------------------|
E|----------------------------------------------------|



Outro

e|----x-x-x-x-x-x-x-x-x-x-x-x-x-x-x-x-----|
B|----9-9-9-9-9-9-9-9-9-9-8-9-9-9-9-9-----|
G|----8-8-8-8-8-8-8-8-8-8-8-8-8-8-8-8-----|  X3   
D|----9-9-9-9-9-9-9-9-9-9-9-9-9-9-9-9-----|
A|----------------------------------------|
E|----------------------------------------|


e|----------------------------------------|
B|---8h9/////////////////21---------------|
G|----------------------------------------|
D|----------------------------------------|
A|----------------------------------------|
E|----------------------------------------|


SONG ORDER

Intro
Chorus
Verse
Chorus
Verse
Chorus
Bridge
Chorus
Outro




| /  slide up
| \  slide down
| h  hammer-on
| p  pull-off
| ~  vibrato
| +  harmonic
| x  Mute note
===============================================================================
Comments