The Cribs - Mirror Kissers Chords & Tabs

 

Mirror Kissers Chords & Tabs

The Cribs Chords & Tabs

Version: 1 Type: Bass Tab

Mirror Kissers Bass Tab

Come in with the drums 
Intro 

G|------------------------------------------|
D|------------------------------------------|
A|---77--7-07777---77--7-077777-------------|
E|-00--00--------00--00---------------------|

G|------------------------------------------------------------|
D|------------------------------------------------------------|
A|-67777-067777-67777-067777----------------------------------|
E|---------------------------555555-055555--5777777-0777777---|

Main riff part 1
G|--------------------------------------------|
D|--------------------------------------------|
A|-67777-067777-------------------------------|
E|--------------55555-05555-577777-077777-----|

Main riff part 2
G|----------------------------------------------------------|
D|----------------------------------------------------------|
A|-67777-0677777-677777-0677777-----------------------------|
E|------------------------------55555-055555-577777-077777--|

Verse 
[ Tab from: http://www.guitartabs.cc/tabs/t/the_cribs/mirror_kissers_btab.html ]
G|--------------------------------------------------------------------------|
D|--------------------------------------------------------------------------|
A|-222222222222222-44444----------2222--777777777777777-444444------22222222|
E|----------------------5555555555---------------------------55555555555----|

Main riff part 2 *2
Verse
Main riff part 2 *2 

The song slows down and you should play these notes at the same time as the drum

G|---------------------------------------------------|
D|---------------------------------------------------|
A|---------------------------------------------------|
E|-5--5--5--5--7-7-7--77--5-5-5-5--7-7-7-77----------|

Then play this in a slow rhythm. 

G|------------------------------------------------|
D|------------------------------------------------|
A|-5555555-7777777-555555-777777------------------| 
E|------------------------------------------------|

Have a 9 second break and then pick these notes at the same speed as the drum.

This 11 by the way
G|----------------| *6
D|-11111111-------|
A|----------------| 
E|----------------|
Then play this also at the same time as the drums
G|------------------|
D|-11-11-11-11------|
A|------------------|
E|------------------|
Main riff part *2

G|------------------------------|
D|------------------------------|
A|-67777777776777777777---------|
E|-----------------------00-----|

You should finish and the guitar and drums should still be going.


There you go! Itís not a hard song to play.