The Cribs - Martell Chords & Tabs

 

Martell Chords & Tabs

The Cribs Chords & Tabs

Version: 1 Type: Tab

Martell Tab

   
-------------------------------------------------------------------------------
			     Martell - The Cribs
-------------------------------------------------------------------------------
Tabbed by: t00re
Email: i_love_beth.s@hotmail.com

Tuning:E A D G B E (standard)

Intro
e|----------------------------------------------------------------------------------|
B|----------------------------------------------------------------------------------|
G|-9-9-9-9-9-9-99--88--6-6-6-6-6-6-66--88--9-9-9-9-9-9-99--88--6-6-6-6-6-6-66--88---|
D|-9-9-9-9-9-9-99--88--6-6-6-6-6-6-66--88--9-9-9-9-9-9-99--88--6-6-6-6-6-6-66--88---|
A|-7-7-7-7-7-7-77--66--4-4-4-4-4-4-44--66--7-7-7-7-7-7-77--66--4-4-4-4-4-4-44--66---|
E|----------------------------------------------------------------------------------|

verse 1
e|-----------------------------------------------|-------------------------------------------------|
B|-----------------------------------------------|-------------------------------------------------|
G|-----------------------6-6-6-666-6-6-6-666-----|-----------------------6-6--6-6--6666666666666---|
D|-7-7-7-777--6-6-6-666--6-6-6-666-6-6-6-666--x3-|-7-7-7-777--6-6-6-666--6-6--6-6--6666666666666---|
A|-7-7-7-777--6-6-6-666--4-4-4-444-4-4-4-444-----|-7-7-7-777--6-6-6-666--4-4--4-4--4444444444444---|
E|-5-5-5-555--4-4-4-444--------------------------|-5-5-5-555--4-4-4-444----------------------------|

Chorus
e|----------------------------------------------------------|
B|----------------------------------------------------------|
G|-9-9-9-9-9-9-99--88--6-6-6-6-6-6-66--88--9-9-9-9-9-9-99---|
D|-9-9-9-9-9-9-99--88--6-6-6-6-6-6-66--88--9-9-9-9-9-9-99-x3|
A|-7-7-7-7-7-7-77--66--4-4-4-4-4-4-44--66--7-7-7-7-7-7-77---|
E|----------------------------------------------------------|

Chorus (once after ^that^ bit)
e|------------------------------------------|
B|------------------------------------------|
G|-9-9-9-9-9-9-99--88--6-6-6-6-6-6-66--88---|
D|-9-9-9-9-9-9-99--88--6-6-6-6-6-6-66--88---|
A|-7-7-7-7-7-7-77--66--4-4-4-4-4-4-44--66---|
E|------------------------------------------|
[ Tab from: http://www.guitartabs.cc/tabs/t/the_cribs/martell_tab.html ]
verse 2
e|-----------------------------------------------|-------------------------------------------------|
B|-----------------------------------------------|-------------------------------------------------|
G|-----------------------6-6-6-666-6-6-6-666-----|-----------------------6-6--6-6--6666666666666---|
D|-7-7-7-777--6-6-6-666--6-6-6-666-6-6-6-666--x3-|-7-7-7-777--6-6-6-666--6-6--6-6--6666666666666---|
A|-7-7-7-777--6-6-6-666--4-4-4-444-4-4-4-444-----|-7-7-7-777--6-6-6-666--4-4--4-4--4444444444444---|
E|-5-5-5-555--4-4-4-444--------------------------|-5-5-5-555--4-4-4-444----------------------------|

Chorus
e|----------------------------------------------------------|
B|----------------------------------------------------------|
G|-9-9-9-9-9-9-99--88--6-6-6-6-6-6-66--88--9-9-9-9-9-9-99---|
D|-9-9-9-9-9-9-99--88--6-6-6-6-6-6-66--88--9-9-9-9-9-9-99-x4|
A|-7-7-7-7-7-7-77--66--4-4-4-4-4-4-44--66--7-7-7-7-7-7-77---|
E|----------------------------------------------------------|

Pre chorus
e|----------------------------------------------------------------------------------|
B|----------------------------------------------------------------------------------|
G|-9-9-9-9-9-9-99--88--6-6-6-6-6-6-66--88--9-9-9-9-9-9-99--88--6-6-6-6-6-6-66--88---|
D|-9-9-9-9-9-9-99--88--6-6-6-6-6-6-66--88--9-9-9-9-9-9-99--88--6-6-6-6-6-6-66--88---|
A|-7-7-7-7-7-7-77--66--4-4-4-4-4-4-44--66--7-7-7-7-7-7-77--66--4-4-4-4-4-4-44--66---|
E|----------------------------------------------------------------------------------|

Chorus
e|----------------------------------------------------------|
B|----------------------------------------------------------|
G|-9-9-9-9-9-9-99--88--6-6-6-6-6-6-66--88--9-9-9-9-9-9-99---|
D|-9-9-9-9-9-9-99--88--6-6-6-6-6-6-66--88--9-9-9-9-9-9-99-x3|
A|-7-7-7-7-7-7-77--66--4-4-4-4-4-4-44--66--7-7-7-7-7-7-77---|
E|----------------------------------------------------------|

Chorus (once after ^that^ bit)
e|------------------------------------------|
B|------------------------------------------|
G|-9-9-9-9-9-9-99--88--6-6-6-6-6-6-66--88---|
D|-9-9-9-9-9-9-99--88--6-6-6-6-6-6-66--88---|
A|-7-7-7-7-7-7-77--66--4-4-4-4-4-4-44--66---|
E|------------------------------------------|

Outro
e|-----------------------------------4~~~~~--|
B|-------------------------------------------|
G|------6--6-------6--6-------6--6-----------|
D|--6-7-6--6---6-7-6--6---6-7-6--6-----------|
A|--6-7-4--4---6-7-4--4---6-7-4--4-----------|
E|--4-5--------4-5--------4-5----------------|

| /  slide up
| \  slide down
| h  hammer-on
| p  pull-off
| ~  vibrato
| +  harmonic
| x  Mute note
===============================================================================