The Cribs - Martell Chords & Tabs

 

Martell Chords & Tabs

The Cribs Chords & Tabs

Version: 1 Type: Bass Tab 0 ratings
1 star 2 stars 3 stars 4 stars 5 stars
comments

Martell Bass Tab

   
-------------------------------------------------------------------------------
			     Martell - The Cribs
-------------------------------------------------------------------------------

Tabbed By : imessyou
e-mail: theblochead@hotmail.co.uk

Tuning: standard

Great tune from the Jarman trio

Intro
G|------------|--------------|----------|-------------|
D|------------|--------------|---4------|-------------|
A|-7--7--7--7-|4--4--4--4-2-4|----------|-------------|
E|------------|--------------|2-----5--5|5--5--5-7-7-7| X2

Verse
"How hard can it be..."
G|------------|-----------|-----------|-----------|
D|------------|-----------|-----------|-----------|
A|------------|-----------|4--4--4-4-4|4--4--4-4-4|
E|-5--5--5-5-5|4--4--4-4-4|-----------|-----------| X3

Fourth time through verse
"That they've written for me..."
G|------------|-----------|-----------|-----------------------|
D|------------|-----------|-----------|-----------------------|
A|------------|-----------|4-4-----4-4|2-2-2-2-2-2-2-2-2-2-2-2|
E|-5--5--5-5-5|4--4--4-4-4|-----------|-----------------------|

Chorus
"Someone's got their eye on you now..."
G|------------|--------------|----------|-------------|
D|------------|--------------|---4------|-------------|
A|-7--7--7--7-|4--4--4--4-2-4|----------|-------------|
E|------------|--------------|2-----5--5|5--5--5-7-7-7| X3

Fourth time through chorus
"La la la la I don't think so"
G|------------|--------------|----------|-------------|
D|------------|--------------|---4------|-------------|
A|-7--7--7--7-|4--4--4--4-2-4|----------|-------------|
E|------------|--------------|2-----5--5|5--5--5--7-7-|

Verse
"You should leave it to me..."
G|------------|-----------|-----------|-----------|
D|------------|-----------|-----------|-----------|
A|------------|-----------|4--4--4-4-4|4--4--4-4-4|
E|-5--5--5-5-5|4--4--4-4-4|-----------|-----------| X3
[ Tab from: http://www.guitartabs.cc/tabs/t/the_cribs/martell_btab.html ]
Fourth time through verse
"It's obscene, can't you see..."
G|------------|-----------|-----------|-----------------------|
D|------------|-----------|-----------|-----------------------|
A|------------|-----------|4-4-----4-4|2-2-2-2-2-2-2-2-2-2-2-2|
E|-5--5--5-5-5|4--4--4-4-4|-----------|-----------------------|

Chorus
"Someone's got their eye on you now..."
G|------------|--------------|----------|-------------|
D|------------|--------------|---4------|-------------|
A|-7--7--7--7-|4--4--4--4-2-4|----------|-------------|
E|------------|--------------|2-----5--5|5--5--5-7-7-7| X3

Fourth time through chorus
"La la la la I don't think so"
G|------------|--------------|----------|-------------|
D|------------|--------------|---4------|-------------|
A|-7--7--7--7-|4--4--4--4-2-4|----------|-------------|
E|------------|--------------|2-----5--5|5--5--5--7-7-|

Bridge
G|----------------|----------|----------------|--------|
D|----------------|-------2--|----------------|--------|
A|-4--4-2-4--4-2-4|-4-2-4---4|----------------|--------|
E|----------------|----------|-5--5-4-5--5-4-5|-5-4-5-7|

G|----------------|----------|-----------|-----------------------|
D|----------------|-------2--|-----------|-----------------------|
A|-4--4-2-4--4-2-4|-4-2-4---4|-----------|-----------------------|
E|----------------|----------|-5-5----5-5|7-7-7-7-7-7-7-7-7-7-7-7|

Chorus
"Someone's got their eye on you now..."
G|------------|--------------|----------|-------------|
D|------------|--------------|---4------|-------------|
A|-7--7--7--7-|4--4--4--4-2-4|----------|-------------|
E|------------|--------------|2-----5--5|5--5--5-7-7-7| X3

Fourth time through chorus
"La la la la I don't think so"
G|------------|--------------|----------|-------------|
D|------------|--------------|---4------|-------------|
A|-7--7--7--7-|4--4--4--4-2-4|----------|-------------|
E|------------|--------------|2-----5--5|5--5--5--7-7-|

Ending
G|-------|-------|-----|
D|-------|-------|-----|
A|-------|-------|-7---|
E|-5--7-7|-5--7-7|-----|

Thanx now rate.

| /  slide up
| \  slide down
| h  hammer-on
| p  pull-off
| ~  vibrato
| +  harmonic
| x  Mute note
===============================================================================
Comments