The Cribs - Baby Dont Sweat Chords & Tabs

 

Baby Dont Sweat Chords & Tabs

The Cribs Chords & Tabs

Version: 1 Type: Tab 0 ratings
1 star 2 stars 3 stars 4 stars 5 stars
comments

Baby Dont Sweat Tab

   
-----------------------------------------------------------------------------
			     Baby Don't Sweat - The Cribs
-----------------------------------------------------------------------------
Tabbed by: Gerald
Email: mwoit@lycos.com

Tuning: Standard

INTRO

e|-----------------------------------------------------------------|
B|-----------------------------------------------------------------|
G|-------1-1-1-1-1-1--------5-----5------------6-----6-------------|
D|-------2-2-2-2-2-2------6---6-----6--------7---7-----7-----------|
A|-------2-2-2-2-2-2----6-------6-----6----7-------7-----7---------|
E|--12\0-0-0-0-0-0-0--4------------------5-------------------------|

e|--------------------------------------------------------4--------|
B|-----------------------------------------------------------------|
G|--------8-----8-----------1-1-1-1-1-1-1-1---------5--------------|
D|------9---9-----9---------2-2-2-2-2-2-2-2-------6---6-----6------|
A|----9-------9-----9-------2-2-2-2-2-2-2-2-----6-------6-----6----|
E|--7--------------------12/0-0-0-0-0-0-0-0---4--------------------|

e|--------------5--------------------------------------------------|
B|-----------------------------------------------------------------|
G|-------6--------------8-8-8-8-8----------------------------------|
D|-----7---7-------7----9-9-9-9-9----------------------------------|
A|---7-------7-------7--9-9-9-9-9----------------------------------|
E|-5--------------------7-7-7-7-7----------------------------------|

VERSE

e|-----------------------------------------------------------------|
B|-----------------------------------------------------------------|
G|-------1-1-1-1-1-1-1-1-1-1-1-1-1-1-5-5-5-5-5-5-5-5-5-5-5-5-5-----|
D|-------2-2-2-2-2-2-2-2-2-2-2-2-2-2-6-6-6-6-6-6-6-6-6-6-6-6-6-----|
A|-------2-2-2-2-2-2-2-2-2-2-2-2-2-2-6-6-6-6-6-6-6-6-6-6-6-6-6-----|
E|-12/0--0-0-0-0-0-0-0-0-0-0-0-0-0-0-4-4-4-4-4-4-4-4-4-4-4-4-4-----|
[ Tab from: http://www.guitartabs.cc/tabs/t/the_cribs/baby_dont_sweat_tab.html ]
e|-----------------------------------------------------------------|
B|-----------------------------------------------------------------|
G|-6-6-6-6-6-6-6-6-6-6-6-8-8-8-8-8-8-8-8-8-8-8-8-8-8---------------|
D|-7-7-7-7-7-7-7-7-7-7-7-9-9-9-9-9-9-9-9-9-9-9-9-9-9---------------|
A|-7-7-7-7-7-7-7-7-7-7-7-9-9-9-9-9-9-9-9-9-9-9-9-9-9---------------|
E|-5-5-5-5-5-5-5-5-5-5-5-7-7-7-7-7-7-7-7-7-7-7-7-7-7---------------|


e|-----------------------------------------------------------------|
B|-----------------------------------------------------------------|
G|-------1-1-1-1-1-1-1-1-1-1-1-1-1-1-5-5-5-5-5-5-5-5-5-5-5-5-5-----|
D|-------2-2-2-2-2-2-2-2-2-2-2-2-2-2-6-6-6-6-6-6-6-6-6-6-6-6-6-----|
A|-------2-2-2-2-2-2-2-2-2-2-2-2-2-2-6-6-6-6-6-6-6-6-6-6-6-6-6-----|
E|-12/0--0-0-0-0-0-0-0-0-0-0-0-0-0-0-4-4-4-4-4-4-4-4-4-4-4-4-4-----|

e|-----------------------------------------------------------------|
B|-----------------------------------------------------------------|
G|-6-6-6-6-6-6-6-6-6-6-6-8-8-8-8-8-8-8-8-8-8-8-8-8-8---------------|
D|-7-7-7-7-7-7-7-7-7-7-7-9-9-9-9-9-9-9-9-9-9-9-9-9-9---------------|
A|-7-7-7-7-7-7-7-7-7-7-7-9-9-9-9-9-9-9-9-9-9-9-9-9-9---------------|
E|-5-5-5-5-5-5-5-5-5-5-5-7-7-7-7-7-7-7-7-7-7-7-7-7-7---------------|

CHORUS

e|-----------------------------------------------------------------|
B|-----------------------------------------------------------------|
G|-----------------------------------------------------------------|
D|--------9-7-------------9-7--------------------------------------|
A|--11-11-----11-11-11-11-----11-11-11-11-11-11-11-11-9------------|
E|-----------------------------------------------------------------|

e|-----------------------------------------------------------------|
B|-7-7-7-7-7-7-9-9-7-7-7-7-7-7-9-9---------------------------------|
G|-9-9-9-9-9-9-9-9-9-9-9-9-9-9-9-9---------------------------------|
D|-7-7-7-7-7-7-7-7-7-7-7-7-7-7-7-7---------------------------------|
A|-7-7-7-7-7-7-7-7-7-7-7-7-7-7-7-7---------------------------------|
E|-----------------------------------------------------------------|


| /  slide up
| \  slide down
| h  hammer-on
| p  pull-off
| ~  vibrato
| +  harmonic
| x  Mute note
=============================================================================
Comments