The Cribs - Baby Dont Sweat Chords & Tabs

 

Baby Dont Sweat Chords & Tabs

The Cribs Chords & Tabs

Version: 1 Type: Bass Tab 0 ratings
1 star 2 stars 3 stars 4 stars 5 stars
comments

Baby Dont Sweat Bass Tab

   
Baby Don't Sweat ala le bass - The Cribs


[Quiet Bit]
Guitar does the (0) by itself but you can play it if you want :D

G|-------------------|
D|-------------------|
A|-------------------|   
E|--(0)---4---5---7--| Then:

G|-----------------------------------|
D|---------2---2---------------------|
A|-----------------------------------|   
E|--0-0--0---0-----4---5---7-7-7-7-7-|



[Fast Bit]

G|-----------------------------------------------------------------|
D|-----------------------------------------------------------------|
A|-----------------------------------------------------------------|
E|-0-0-0-0-0-0-0-0-0-0-0-0-0-0-0-0-4-4-4-4-4-4-4-4-4-4-4-4-4-4-4-4-|

G|-----------------------------------------------------------------|
D|-----------------------------------------------------------------|
A|-----------------------------------------------------------------|
E|-5-5-5-5-5-5-5-5-5-5-5-5-5-5-5-5-7-7-7-7-7-7-7-7-7-7-7-7-7-7-7-7-|


[something something something Baby don't sweat]
[ Tab from: http://www.guitartabs.cc/tabs/t/the_cribs/baby_dont_sweat_btab.html ]
G|---------------------------------------------------------------------------------|
D|-------------------------9-9-9-9-9-9-9-9-----------------------------------------|
A|-11-11-11-11-11-11-11-11-----------------11-11-11-11-11-11-11-11-9-9-9-9-9-9-9-9-| X 2
E|---------------------------------------------------------------------------------|

[dun dun dun, dun dun dun, dun dun dun]

G|---------------------------------------------------------|
D|---------------------------------------------------------|
A|-7-7-7---7-7-7---7-7-7---7-7-7---7-7-7---7-7-7---7-7~~~~~|   ~ = let ring
E|---------------------------------------------------------|

some more of the something bit and dun dun dun bits mixed together. Then:

G|---------------------------------------------------------------|
D|---------------------------------------------------------------|
A|-7-7-7---7-7-7---7-7-7---7-7-7---7-7-7---7-7-7---7-7-7---7-6-5-|   
E|---------------------------------------------------------------|

G|---------------------------------------------------------------|
D|---------------------------------------------------------------|
A|-4~~~----4~~~----3-2-1---0~~~----0~~~--------------------------|   ~ = let ring again
E|---------------------------------------------------------------|

Thats the random break down thing....

One more fast bit, then silence. Thats it. W00p.
Comments