The Courteeners - Aftershow Chords & Tabs

 

The Courteeners Chords & Tabs

Version: 2 Type: Tab 0 ratings
1 star 2 stars 3 stars 4 stars 5 stars
comments

Aftershow Tab

   
tabbed by: chris smith

tuning: stanadard EADGBe

intro

e-------12----------12----------12----------12----------12-------|
A----13----13----13----13----13----13----13----12----12----12----|
D-14----------14----------14----------14----------13----------13-|
G----------------------------------------------------------------|
B----------------------------------------------------------------|
E----------------------------------------------------------------|


e----12----------12----------12----|
A-12----12----12----12----12----12-|
D----------13----------13----------|  x3
G----------------------------------|
B----------------------------------|
E----------------------------------|


e--12r--|
A--12r--|
D--13r--|
G-------|
B-------|
E-------|

verse

1st guitar

e-5555555555555555-|-4444444444444444-|
A-5555555555555555-|-5555555555555555-|
D-5555555555555555-|-4444444444444444-| x2
G-7777777777777777-|-6666666666666666-|
B------------------|------------------|
E------------------|------------------|


e-5555555555555555-|-44444444--4--4--4-|
A-5555555555555555-|-55555555--5--5--5-|
D-5555555555555555-|-44444444--4--4--4-|
G-7777777777777777-|-66666666--6--6--6-|
B------------------|-------------------|
E------------------|-------------------|

[ Tab from: http://www.guitartabs.cc/tabs/t/the_courteeners/aftershow_tab_ver_2.html ]
e-5555555555555555-|-44444444-----------------|
A-5555555555555555-|-55555555-----------------|
D-5555555555555555-|-44444444--9--12-12-12-12-|
G-7777777777777777-|-66666666-----------------|
B------------------|-----------7--10-10-10-10-|
E------------------|--------------------------|

2nd guitar

e-------12----------------------------12---------------|
A----13----13-------13-13-12-12----12----12------------|
D-14----------14-14-------------13----------13--13--13-|
G------------------------------------------------------|
B------------------------------------------------------|
E------------------------------------------------------|

e-------12----------------------------12----|
A----13----13-------13-13-12-12----12----12-|
D-14----------14-14-------------13----------|
G-------------------------------------------|
B-------------------------------------------|
E-------------------------------------------|

chorus/instrumental

e-5--5--5--5-------------|-4--4--4--4-----------------|
A-5--5--5--5-------------|-5--5--5--5-----------------|
D-5--5--5--5----5--5-5b--|-4--4--4--4--9--12-12-12-12-|
G-7--7--7--7--7--7-------|-6--6--6--6-----------------|
B------------------------|-------------7--10-10-10-10-|
E------------------------|----------------------------|

e-5--5--5--5----|-4--4--4--4-----------------|
A-5--5--5--5----|-5--5--5--5-----------------|
D-5--5--5--5----|-4--4--4--4--9--12-12-12-12-|
G-7--7--7--7----|-6--6--6--6-----------------|
B---------------|-------------7--10-10-10-10-|
E---------------|----------------------------|

last chord

e--5--|
A--5--|
D--5--|
G--7--|
B-----|
E-----|


order

intro

verse

chorus

verse

chorus

last chord

r=let ring
b=bend

its probably about 13.7% accurate but it sounds fair mint
Comments