The Colour - St Michel Chords & Tabs

 

St Michel Chords & Tabs

The Colour Chords & Tabs

Version: 1 Type: Bass Tab 0 ratings
1 star 2 stars 3 stars 4 stars 5 stars
comments

St Michel Bass Tab

-------------------------------------------------------------------------------
			     St. Michel - The Colour
-------------------------------------------------------------------------------

Tabbed By : Nate15
e-mail: ngarrett2@houston.rr.com	

Tuning: Standard


    Verse:

G|--------------------------|-----------------------|
D|--------------------------|----14-12--------------|
A|--------------------------|----------14-----------|
E|--------------------------|-------------12--------|

G|--------------------------|-----------------------|
D|----14-12-----------------|----14-12--------------|
A|----------14--------------|----------14-----------|
E|-------------12-----------|-------------12--------|


    
    Alt. Endings A and B:

G|--------------------------|  |------------------------------|
D|----14-12-----------------|  |----14-12---------------------|
A|----------14-----5-7-7----|  |----------14-----5--7-77-7----|
E|--------------------------|  |------------------------------|


    Chorus:
[ Tab from: http://www.guitartabs.cc/tabs/t/the_colour/st_michel_btab.html ]
G|---------------------------------|---------------------------------|  
D|---------------------------------|---------------------------------|  
A|---------------------------------|----17*/7--7-77-7-7---9-7--------|   
E|---------------------------------|-------------------------9-7-----|  
*(don't slide on 2nd Chorus at [02:08])

G|---------------------------------||
D|---------------------------------||
A|----77-7-77-7-7---9-7------------||
E|----------------------9-7--------|| x3

    
    Chorus Ending:

G|----------------------------|
D|----------------------------|
A|----------------------------|
E|----33333333--55555555------|

    
    Break:	

G|---------------------------------------------|--------------11h12-12-12--------------------|
D|---------------------------------------------|---------------------------------------------|
A|---7--7/14/10--5--5/9h10-10-10-10------------|---0-00-00-0---------------------------------|
E|---------------------------------------------|---------------------------------------------| 


    Alt. Break Ending:

G|---------------------------------------------|
D|--------------14-12--------------------------|
A|---0-00-00-0--------14-----------------------|
E|-----------------------12--------------------|


===============================================================================================


[00:00] Verse + Alt. Ending A
[00:12] Verse + Alt. Ending B
[00:19] Chorus + Chorus Ending
[00:41] Verse + Alt. Ending A	
[00:52] Verse + Alt. Ending B
[00:59] Chorus + Chorus Ending
[01:21] Break x4 (replace last bar with Alt. Break Ending)
[01:50] Chorus x2 + Chorus Ending
Comments