The Closest Thing - The Juliana Theory Chords & Tabs

 

The Juliana Theory Chords & Tabs

The Closest Thing Chords & Tabs

Version: 1 Type: Tab 0 ratings
1 star 2 stars 3 stars 4 stars 5 stars
comments

The Juliana Theory Tab

#----------------------------------PLEASE NOTE---------------------------------#
#This file is the author's own work and represents their interpretation of the #
#song. You may only use this file for private study, scholarship, or research. #
#------------------------------------------------------------------------------#

Artist: The Julianna Theory
Song: The Closest Thing
Tuning: Drop D: capo on 4th fret
Listen to the song for the right strumming.

[ Tab from: http://www.guitartabs.cc/tabs/t/the_closest_thing/the_juliana_theory_tab.html ]
Intro
------------------------------------0-----------------------
---3---3------3---3-----3---3-----3--3-0--------------------
----0-0--------0-0-0-----0-0-------0--0---------------------
-----0----------0---------0---------------------------------
-3-------3-3------------------------------------------------
---------------------2--------2-2---------------------------



Chorus
------------------------------------------------------------
------------------------------------------------------------
------------------------------------------------------------
------------------------------------------------------------
----2----0-------5------------------------------------------
----2----0-------5------------------------------------------



bridge
------------------------------------------------------------
------------------------------------------------------------
------------------------------------------------------------
------------------------------------------------------------
------5----7-----5-----2-----5----2----5-----2--------------
------5----7-----5-----2-----5----2----5-----2--------------



Great song. Enjoy!
Comments