The Click Five - Pop Princess Chords & Tabs

 

Pop Princess Chords & Tabs

The Click Five Chords & Tabs

Version: 2 Type: Tab 0 ratings
1 star 2 stars 3 stars 4 stars 5 stars
comments

Pop Princess Tab

The Click Five - Pop Princess
Tuning: EADGBe
Tab by: Xx22xX (me)

There's lots of keyboard that sounds like a guitar..but its a keyboard im pretty sure..
I didn't write some parts of the guitar. Was too lazy..but it's not hard to figure out.

It's a good song..couldn't find a tab for it so here it is.

Intro
-----------------------------------------------------|
-----------------------------------------------------|
----5--3--5------------------------------------------|
-3--5--3--5------------------------------------------|
-3--3--1--3------------------------------------------|
-1---------------------------------------------------|

Verse       All pm'ed cept last chord for build up to prechorus
-----------------------------------------------------|
-----------------------------------------------------|
-10--------------10----------------------------------|
-10--10--8--10---10--7--12--10-----------------------|x2
-8---10--8--10---8---7--12--10-----------------------|
-----8---6--8--------5--10--8------------------------|

Pre-Chorus
-----------------------------------------------------|
-----------------------------------------------------|
-7-9-10---7-9-10---7-9-10--12-14---------------------|
-7-9-10---7-9-10---7-9-10--12-14---------------------|
-5-7-8----5-7-8----5-7-8---10-12---------------------|
-----------------------------------------------------|

Chorus
-----------------------------------------------------|
-----------------------------------------------------|
-7------10--7----------------------------------------|
-7-8-10-10--7-8-10/12--------------------------------|x2
-5-8-10-8---5-8-10/12--------------------------------|
---6-8--------6-8-/10--------------------------------|
[ Tab from: http://www.guitartabs.cc/tabs/t/the_click_five/pop_princess_tab_ver_2.html ]
Verse    All pm'ed cept last chord for buildup to prechorus
-----------------------------------------------------|
-----------------------------------------------------|
-10--------------10----------------------------------|
-10--10--8--10---10--7--12--10-----------------------|x2
-8---10--8--10---8---7--12--10-----------------------|
-----8---6--8--------5--10--8------------------------|


Pre-Chorus
-----------------------------------------------------|
-----------------------------------------------------|
-7-9-10---7-9-10---7-9-10--12-14---------------------|
-7-9-10---7-9-10---7-9-10--12-14---------------------|
-5-7-8----5-7-8----5-7-8---10-12---------------------|
-----------------------------------------------------|


Chorus
-----------------------------------------------------|
-----------------------------------------------------|
-7------10--7----------------------------------------|
-7-8-10-10--7-8-10/12--------------------------------|x2
-5-8-10-8---5-8-10/12--------------------------------|
---6-8--------6-8-/10--------------------------------|


Bridge
---------------------------------------------------------------|
---------------------------------------------------------------|
-7~-5~--------------5-5-3-5----------5-5-3-5-5-3-5-5-3-5-7-7---|
-7~-5~--x2-5-5-3-5--5-5-3-5--5-5-3-5-5-5-3-5-5-3-5-5-3-5-7-7---|
-5~-3~-----5-5-3-5--3-3-1-3--5-5-3-5-3-3-1-3-3-1-3-3-1-3-5-5---|
-----------3-3-1-3-----------3-3-1-3---------------------------|

Keyboard solo
-----------------------------------------------------|
-----------------------------------------------------|
-7---5-10---7---5-5/7--------------------------------|
-7-5-5-10---7-5-5-5/7--------------------------------|
-5-5-3-8----5-5-3-3/5--------------------------------|
---3----------3--------------------------------------|

Chorus
-----------------------------------------------------|
-----------------------------------------------------|
-7------10--7----------------------------------------|
-7-8-10-10--7-8-10/12--------------------------------|
-5-8-10-8---5-8-10/12--------------------------------|
---6-8--------6-8-/10--------------------------------|

Ending

-----------------------------------------------------|
-----------------------------------------------------|
-----7-9---------------------------------------------|
-3---7-9-7~------------------------------------------|
-3---5-7-7~------------------------------------------|
-1-------5~------------------------------------------|
Comments