The Click Five - Just The Girl Chords & Tabs

 

Just The Girl Chords & Tabs

The Click Five Chords & Tabs

Version: 2 Type: Bass Tab

Just The Girl Bass Tab

Tabbed by:Alejandro Ortiz(Qro,Mexico)

Tuning:Standard

Intro
G|-----------------------------------------|
D|-----------------------------------------|
A|-12-12-12-12-12-12-12-12-777-555---------|
E|-----------------------------------------|

G|-----------------------------------------|
D|-----------------------------------------|
A|-12-12-12-12-12-12-12-12-457775555-------|
E|-----------------------------------------|

Verse(mute notes)
G|-----------------------------------------|
D|-----------------------------------------|
A|-12-12-12-12-12-12-12-12-7-7-7-5-5-5-----|(x6)
E|-----------------------------------------|

G|------------------------------------------|
D|-------------------------6-6-6------------|
A|-12-12-12-12-12-12-12-12-------5-5-5----7-|
E|------------------------------------------|
[ Tab from: http://www.guitartabs.cc/tabs/t/the_click_five/just_the_girl_btab_ver_2.html ]
Chorus
G|----------------------------------------------------------------------------|
D|----------------------------------------------------------------------------|
A--7/12121212121212------7-7-7---4-4-5-5-5-12-12-12-12-12-12-7-7-7-5-5-5------|
E|------------------12-12-----------------------------------------------------|

G|---------------------------------------------------------------------------|
D|---------------------------------------------------------------------------|
A|-12-12----------4-4-5-5-5-7-7-7-7-7-79-9-9-9-9-9-9-------------------------|
E|-------12-12-12------------------------------------------------------------|

Intro.......
Verse.......
Chorus......

Bridge
G|---------------------------------------------------------------------------|
D|---------------------------------------------------------------------------|
A|--99999999-1212121212121212-1414141414141414-7777-8888-9/1-----------------|
E|---------------------------------------------------------------------------|

G|--------------------------------------------------------------------------|
D|-----------------12121212/9999/7777/5555--00000---------------------------|
A 999912/1-12121212---------------------------------------------------------|
E --------------------------------------------------------------------------|

(Ends with)
Chorus......
Intro.......

(oh man this one wasn´t easy to discover...... hope you like it)