The Click Five - Ill Take My Chances Chords & Tabs

 

Ill Take My Chances Chords & Tabs

The Click Five Chords & Tabs

Version: 1 Type: Tab 0 ratings
1 star 2 stars 3 stars 4 stars 5 stars
comments

Ill Take My Chances Tab

   
-------------------------------------------------------------------------------
			    I'll Take My Chances - The Click Five 
-------------------------------------------------------------------------------
Tabbed by:Jon
Email:Smarttpants4146@yahoo.com

Tuning:EADGBe
Solo 2:00
e|-------10-------10--------------------------------------------------|
B|--10b----10b-8----10b-8\-----8--------8------------8-8/10-----------|
G|---------------------------/9-9-8\--/8-8-7\--/7h9-9-----------------| 
D|--------------------------------------------------------------------|
A|--------------------------------------------------------------------|
E|--------------------------------------------------------------------|
[ Tab from: http://www.guitartabs.cc/tabs/t/the_click_five/ill_take_my_chances_tab.html ]
e|----------------------------------15--15--15-----15--17/19----------|
B|-12--171217-15b--15b-15b--15\--/15--15--15----15-----15-15----------|
G|--------------------------------------------------------------------|
D|--------------------------------------------------------------------|
A|--------------------------------------------------------------------|
E|--------------------------------------------------------------------|

e|---19--19--19--19b--17--15----15-----------------------15-----------|
B|-15--15--15---15-----------/16--16--15-----15--15--15h17---15---(13)|
G|----------------------------------------/16--16--16-----------16-14-|
D|--------------------------------------------------------------------|
A|--------------------------------------------------------------------|
E|--------------------------------------------------------------------|

e|---------------------------|
B|-15--13--15--12------------|
G|-16--14--16--12------------|
D|---------------------------|
A|---------------------------|
E|---------------------------|

and thats it, sounds hard, but its pretty easy. any questions? email me! i
don't bite. please comment too!


| /  slide up
| \  slide down
| h  hammer-on
| b  bend
|()  optional
| ~  vibrato ===============================================================================
Comments