The Click Five - Catch Your Wave Chords & Tabs

 

Catch Your Wave Chords & Tabs

The Click Five Chords & Tabs

Version: 1 Type: Tab 0 ratings
1 star 2 stars 3 stars 4 stars 5 stars
comments

Catch Your Wave Tab

                            THE CLICK FIVE
                            CATCH YOUR WAVE

STANDARD TUNING
EADGBe


---------------------------------------------|
---------------------------------------------|
---7------------------------7----------------|
---7-7-7-9-9-4-4/5-5--4/5-7-7--4/5-5-5/7-7---|x2
---5-7-7-9-9-4-4/5-5--4/5-7-5--4/5-5-5/7-7---|
-----5-5-7-7-2-2/3-3--2/3-5----2/3-3-3/5-5---|


then the chorus comes

[ Tab from: http://www.guitartabs.cc/tabs/t/the_click_five/catch_your_wave_tab.html ]
---------------------------------------------|
---------------------------------------------|
---7------------------------7----------------|
---7-7-7-9-9-4-4/5-5--4/5-7-7--4/5-5-5/7-7---|
---5-7-7-9-9-4-4/5-5--4/5-7-5--4/5-5-5/7-7---|
-----5-5-7-7-2-2/3-3--2/3-5----2/3-3-3/5-5---|


outro
---------------------------------------------|
---------------------------------------------|
---7------------------------7----------------|
---7-7-7-9-9-4-4/5-5--4/5-7-7--4/5-5-5/7-7---|x2
---5-7-7-9-9-4-4/5-5--4/5-7-5--4/5-5-5/7-7---|
-----5-5-7-7-2-2/3-3--2/3-5----2/3-3-3/5-5---|


thats it
easy song
peace
Comments