The Click Five - Angel To You Devil To Me Chords & Tabs

 

Angel To You Devil To Me Chords & Tabs

The Click Five Chords & Tabs

Version: 1 Type: Tab 0 ratings
1 star 2 stars 3 stars 4 stars 5 stars
comments

Angel To You Devil To Me Tab

                           THE CLICK FIVE
                       ANGEL TO YOU DEVIL TO ME


STANDARD TUNING
EADGBe


-------------------------------------------------|
--------------11b-13-11----11-hold----13-11------|
--------10-13-----------13---------13-------13---|
--10-13------------------------------------------|x2
-------------------------------------------------|
-------------------------------------------------|


palm muted
------------------------------------------------------|
------------------------------------------------------|
------------------------------------------------------|
--5-5-5-6-6-8-8-8-8----------5-5-5-6-6-8-------666----|
--3-3-3-4-4-6-6-6-6-6-6-6-6--3-3-3-4-4-6-6-6-6-666----|
--------------------4-4-4-4--------------4-4-4-444----|

[ Tab from: http://www.guitartabs.cc/tabs/t/the_click_five/angel_to_you_devil_to_me_tab.html ]
----------------------------------------------------|
----------------------------------------------------|
----------------------------------------------------|
--5-5-5-6-6-8-8-8-8---------5-5-5-6-6-8-4-5-6-------|
--3-3-3-4-4-6-6-6-6-6-6-6-6-3-3-3-4-4-6-4-5-6-------|
--------------------4-4-4-4-------------2-3-4-------|


then the chorus comes


-------------------------------------------------|
--------------11b-13-11----11-hold----13-11------|
--------10-13-----------13---------13-------13---|
--10-13------------------------------------------|x2
-------------------------------------------------|
-------------------------------------------------|


------------------------------------------------------|
------------------------------------------------------|
------------------------------------------------------|
--5-5-5-6-6-8-8-8-8----------5-5-5-6-6-8-------666----|
--3-3-3-4-4-6-6-6-6-6-6-6-6--3-3-3-4-4-6-6-6-6-666----|
--------------------4-4-4-4--------------4-4-4-444----|


----------------------------------------------------|
----------------------------------------------------|
----------------------------------------------------|
--5-5-5-6-6-8-8-8-8---------5-5-5-6-6-8-4-5-6-------|
--3-3-3-4-4-6-6-6-6-6-6-6-6-3-3-3-4-4-6-4-5-6-------|
--------------------4-4-4-4-------------2-3-4-------|


thats pretty much it
there is a pretty cool solo later on in the song
peace
Comments