The Cleftones - Heart And Soul Chords & Tabs

 

Heart And Soul Chords & Tabs

The Cleftones Chords & Tabs

Version: 1 Type: Tab 0 ratings
1 star 2 stars 3 stars 4 stars 5 stars
comments

Heart And Soul Tab

Guitar 1

e----------------------------------|
B----------------------------------|
G----------------------------------|
D------2-2-------------------------|
A--3-3-----0-0-3-3-----0-0-----2-2-|
E------------------1-1-----3-3-----|

Guitar 2(only played after G.1's second Time In)

[ Tab from: http://www.guitartabs.cc/tabs/t/the_cleftones/heart_and_soul_tab.html ]
e-------------------------------------------------------|
B-------------------------------------------------------|
G---5-5-5~~-5-4-2-4-5-7--9-9-9~~-9-7-5-7-9-10--12~~-5~~-|
D-------------------------------------------------------|
A-------------------------------------------------------|
E-------------------------------------------------------|


e-------------------------------------------------------|
B-------------------------------------------------------|
G14-12-10-9-7-5-4-2-0---2-0-2-4-5-7---------------------|
D---------------------2---------------------------------|
A-------------------------------------------------------|
E-------------------------------------------------------|

Play Til You Get Bored Or Til Your Done Cuz This Song Is Like A Round But Not Really And 
My First And Yeah.
Comments