The Classic Crime - The Ascent Chords & Tabs

 

The Ascent Chords & Tabs

The Classic Crime Chords & Tabs

Version: 5 Type: Tab

The Ascent Tab

The Classic Crime - The Ascent

Tuning: Drop D
Capo: 1st

Guitar 1:
                           4x                        4x
e|--------------------------|------------------------|
B|--------------------------|------------------------|
G|--------1-----6------1----|--------1-----6-----1---|
D|-----4-----4-----4--------|-----4-----4-----4------|
A|--6-----------------------|--4---------------------|
D|--------------------------|------------------------|

Guitar 2:

e|--------------------------|------------------------------|
B|--------------------------|------------------------------|
G|--------------------------|------------------------------|
D|--------------------11----|------------------------------|
A|--6--/8---/9---/11--------|--6---/8----/9----/11----\4---|
D|--------------------------|------------------------------|

e|------------------------------------------------|
B|------------------------------------------------|
G|------------------------------------------------|
D|------------------11-11-11-11-11-11-11-11-11-11-|
A|--6--/8--/9--/11--------------------------------|
D|------------------------------------------------|

Guitar 1:

e|----------------------------------------------------------------|
B|-2/4-4-4-4-4-4-4--4/6-6-6-6-6-6-6--6/7-7-7-7-7-7--7/9-9-9-9-9-9-|
G|----------------------------------------------------------------|
D|----------------------------------------------------------------|
A|----------------------------------------------------------------|
D|----------------------------------------------------------------|

Guitar 2:

e|-----------------------------------------------|
B|-----------------------------------------------|
G|-----------------------------------------------|
D|--9-9-9-9-9-9-9-9-9-9-9-9-9-9-9-9-9-9-9-9-9-9--|
A|--9-9-9-9-9-9-9-9-9-9-9-9-9-9-9-9-9-9-9-9-9-9--|
D|--9-9-9-9-9-9-9-9-9-9-9-9-9-9-9-9-9-9-9-9-9-9--|

Guitar 1:

e|------9----------9---------9----------9----|-11--11--13--13--14--14--13--13---|
B|-9/11---11--9/11---11-9/11---11--9/11---11-|---11--11--11--11--11--11--11--11-|
G|-------------------------------------------|----------------------------------|
D|-------------------------------------------|----------------------------------|
A|-------------------------------------------|----------------------------------|
D|-------------------------------------------|----------------------------------|

Guitar 2:
[ Tab from: http://www.guitartabs.cc/tabs/t/the_classic_crime/the_ascent_tab_ver_5.html ]
e|---------------------------------------------|-------------------------------|
B|---------------------------------------------|-------------------------------|
G|---------------------------------------------|-6-6-6-6-6-6-6-6-6-6-6-6-6-6-6-|
D|-1-1-1-1-1-1-1-1-1-1-1-1-1-1-1-1-1-1-1-1-1-1-|-6-6-6-6-6-6-6-6-6-6-6-6-6-6-6-|
A|-1-1-1-1-1-1-1-1-1-1-1-1-1-1-1-1-1-1-1-1-1-1-|-4-4-4-4-4-4-4-4-4-4-4-4-4-4-4-|
D|-1-1-1-1-1-1-1-1-1-1-1-1-1-1-1-1-1-1-1-1-1-1-|-------------------------------|

Guitar 1:

e|----------------------------------------------------------------|
B|-2/4-4-4-4-4-4-4--4/6-6-6-6-6-6-6--6/7-7-7-7-7-7--7/9-9-9-9-9-9-|
G|----------------------------------------------------------------|
D|----------------------------------------------------------------|
A|----------------------------------------------------------------|
D|----------------------------------------------------------------|

Guitar 2:

e|-----------------------------------------------|
B|-----------------------------------------------|
G|-----------------------------------------------|
D|--9-9-9-9-9-9-9-9-9-9-9-9-9-9-9-9-9-9-9-9-9-9--|
A|--9-9-9-9-9-9-9-9-9-9-9-9-9-9-9-9-9-9-9-9-9-9--|
D|--9-9-9-9-9-9-9-9-9-9-9-9-9-9-9-9-9-9-9-9-9-9--|

Guitar 1:

e|------9----------9---------9----------9----|-11--11--13--13--14--14--13--13---|
B|-9/11---11--9/11---11-9/11---11--9/11---11-|---11--11--11--11--11--11--11--11-|
G|-------------------------------------------|----------------------------------|
D|-------------------------------------------|----------------------------------|
A|-------------------------------------------|----------------------------------|
D|-------------------------------------------|----------------------------------|

Guitar 2:

e|-------------------------------------------|---------------------------------|
B|-------------------------------------------|---------------------------------|
G|-------------------------------------------|---------------------------------|
D|-1-1-1-1-1-1-1-1-1-1-1-1-1-1-1-1-1-1-1-1-1-|-4-4-4-4-4-4-4-4-4-4-4-4-4-4-4-4-|
A|-1-1-1-1-1-1-1-1-1-1-1-1-1-1-1-1-1-1-1-1-1-|-4-4-4-4-4-4-4-4-4-4-4-4-4-4-4-4-|
D|-1-1-1-1-1-1-1-1-1-1-1-1-1-1-1-1-1-1-1-1-1-|-4-4-4-4-4-4-4-4-4-4-4-4-4-4-4-4-|


/ means slide up
\ means slide down

The notes are the actual fret number aka if you see anything played on the 1st fret, it 
is actually played open. I figured it would be easier to read it this way since you get 
pretty high on the fret board.
Enjoy!