The Classic Crime - Coldest Heart Chords & Tabs

 

Coldest Heart Chords & Tabs

The Classic Crime Chords & Tabs

Version: 3 Type: Tab 0 ratings
1 star 2 stars 3 stars 4 stars 5 stars
comments

Coldest Heart Tab

Title: The Coldest Heart
Artist: The Classic Crime

Tuning: Standard - EADGBe

\ = slide down
PM = palm mute
x = mute


Verse (clean) x2
e|-------------------------------------------------------------------------|
B|--4-4-4-4-4-4-4-4-4------------------------------------8-8-8-8--3-3-3-3--|
G|--5-5-5-5-5-5-5-5-5--7-7-7-7-7-7-7-7--8-8-8-8-8-8-8-8--8-8-8-8--3-3-3-3--|
D|--5-5-5-5-5-5-5-5-5--5-5-5-5-5-5-5-5--6-6-6-6-6-6-6-6--8-8-8-8--3-3-3-3--|
A|---------------------5-5-5-5-5-5-5-5--6-6-6-6-6-6-6-6--------------------|
E|-------------------------------------------------------------------------|


Pre-Chorus (Distortion)
e|---------------------------------|
B|---------------------------------|
G|---------------------------------|
D|--xx-3----xx-6----xx-10----xx-8--|
A|--xx-3----xx-6----xx-10----xx-8--|
E|--xx-1----xx-4----xx--8----xx-6--|

e|-----------------------------------------------|
B|-----------------------------------------------|
G|-----------------------------------------------|
D|--xx-3----xx-6----xx-10----xx-8-8-8-8-8-8-8-8--|
A|--xx-3----xx-6----xx-10----xx-8-8-8-8-8-8-8-8--|
E|--xx-1----xx-4----xx--8----xx-6-6-6-6-6-6-6-6--|
                               |PM-grad-release|


Chorus (Distortion) x2
e|-------------------|
B|-------------------|
G|--8-7---8-7---8-7--|
D|------8-----8------| x3
A|-------------------|
E|-------------------|

e|-------------------|
B|--6----------------|
G|----7---8-7---8-7--|
D|------8-----8------|
A|-------------------|
E|-------------------|


Post-Chorus
e|-------------|
B|-------------|
G|--8---7------|
D|----------8--|
A|-------------|
E|-------------|

e|--------------------------------------|
B|--4-4-4-4-4-4-4444--4-4-4-4-4-4-4444--|
G|--5-5-5-5-5-5-5555--5-5-5-5-5-5-5555--|
D|--5-5-5-5-5-5-5555--5-5-5-5-5-5-5555--|
A|--------------------------------------|
E|--------------------------------------|


Verse (Clean) x2
e|-------------------------------------------------------------------------|
B|--4-4-4-4-4-4-4-4-4------------------------------------8-8-8-8--3-3-3-3--|
G|--5-5-5-5-5-5-5-5-5--7-7-7-7-7-7-7-7--8-8-8-8-8-8-8-8--8-8-8-8--3-3-3-3--|
D|--5-5-5-5-5-5-5-5-5--5-5-5-5-5-5-5-5--6-6-6-6-6-6-6-6--8-8-8-8--3-3-3-3--|
A|---------------------5-5-5-5-5-5-5-5--6-6-6-6-6-6-6-6--------------------|
E|-------------------------------------------------------------------------|


Pre-Chorus
e|---------------------------------|
B|---------------------------------|
G|---------------------------------|
D|--xx-3----xx-6----xx-10----xx-8--|
A|--xx-3----xx-6----xx-10----xx-8--|
E|--xx-1----xx-4----xx--8----xx-6--|
[ Tab from: http://www.guitartabs.cc/tabs/t/the_classic_crime/coldest_heart_tab_ver_3.html ]
e|-----------------------------------------------|
B|-----------------------------------------------|
G|-----------------------------------------------|
D|--xx-3----xx-6----xx-10----xx-8-8-8-8-8-8-8-8--|
A|--xx-3----xx-6----xx-10----xx-8-8-8-8-8-8-8-8--|
E|--xx-1----xx-4----xx--8----xx-6-6-6-6-6-6-6-6--|
                               |PM-grad-release|


Chorus x2
e|-------------------|
B|-------------------|
G|--8-7---8-7---8-7--|
D|------8-----8------| x3
A|-------------------|
E|-------------------|

e|-------------------|
B|--6----------------|
G|----7---8-7---8-7--|
D|------8-----8------|
A|-------------------|
E|-------------------|


Post-Chorus
e|-------------|
B|-------------|
G|--8---7------|
D|----------8--|
A|-------------|
E|-------------|


Bridge
e|-----------------------------------------|
B|--------4---------2----------------------|
G|--5555--5---3333--3---------5---------8--|
D|--5555--5---3333--3---3333--3---6666--6--| x2
A|--3333------1111------3333--3---6666--6--|
E|----------------------1111------4444-----|
   |-PM-|    |-PM-|    |-PM-|    |-PM-|

e|-----------------------------------------------------------------------|
B|-----------------------------------------------------------------------|
G|--5555555555555555-3333333333333333------------------------------------|
D|--5555555555555555-3333333333333333-3333333333333333-6666666666666666--| x2
A|--3333333333333333-1111111111111111-3333333333333333-6666666666666666--|
E|------------------------------------1111111111111111-4444444444444444--|


Chorus
e|-------------------|
B|-------------------|
G|--8-7---8-7---8-7--|
D|------8-----8------| x3
A|-------------------|
E|-------------------|

e|-------------------|
B|--6----------------|
G|----7---8-7---8-7--|
D|------8-----8------|
A|-------------------|
E|-------------------|


Chorus Break
e|---------|
B|---------|
G|---------|
D|--33333--|
A|--33333--|
E|--11111--|


Chorus x3
e|-------------------|
B|-------------------|
G|--8-7---8-7---8-7--|
D|------8-----8------| x3
A|-------------------|
E|-------------------|

e|-------------------|
B|--6----------------|
G|----7---8-7---8-7--|
D|------8-----8------|
A|-------------------|
E|-------------------|


Outro
e|-----------------------------------------------------------------------|
B|-----------------------------------------------------------------------|
G|--555-5--55-5-5-5--333-3--33-3-3-3-------------------------------------|
D|--555-5--55-5-5-5--333-3--33-3-3-3--333-3--33-3-3-3--666-6--66-6-6-6\--|
A|--333-3--33-3-3-3--111-1--11-1-1-1--333-3--33-3-3-3--666-6--66-6-6-6\--|
E|------------------------------------111-1--11-1-1-1--444-4--44-4-4-4\--|
Comments