The Classic Crime - Coldest Heart Chords & Tabs

 

Coldest Heart Chords & Tabs

The Classic Crime Chords & Tabs

Version: 1 Type: Tab 0 ratings
1 star 2 stars 3 stars 4 stars 5 stars
comments

Coldest Heart Tab

   
-------------------------------------------------------------------------------
			     The Coldest Heart - The Classic Crime
-------------------------------------------------------------------------------
Tabbed by: orion910
Email:
Band Site: http://www.theclassiccrime.com/

Tuning: Standard

Intro/Verse 1

e|---------------------------------------------------------------------------|
B|---444444444----------------------8888--3333-------------------------------|
G|---555555555--77777777--88888888--8888--3333-------------------------------|
D|---xxxxxxxxx--55555555--66666666--xxxx--xxxx-------------------------------|
A|---333333333--xxxxxxxx--xxxxxxxx--6666--1111-------------------------------|
E|--------------33333333--44444444-------------------------------------------| Repeat 2x

Pre-Chorus
Gtr1

e|---------------------------------------------------------------------------|
B|------------------------44444444---33333333--------------------------------|
G|--55555555---88888888---55555555---33333333--------------------------------|
D|--33333333---66666666---xxxxxxxx---xxxxxxxx--------------------------------|
A|--xxxxxxxx---xxxxxxxx---33333333---11111111--------------------------------|
E|--11111111---44444444------------------------------------------------------|Repeat 2x

Pre-Chorus
Gtr2

e|---------------------------------------------------------------------------|
B|---------------------------------------------------------------------------|
G|---------------------------------------------------------------------------|
D|--x3-----6-----10----8----------8------------------------------------------|
A|--x3-----6-----10----8----------8------------------------------------------|
E|--x1-----4-----8-----6----------6-x8---------------------------------------| Repeat 2x 
                    x
                               palm mute this chord before going into chorus

Chorus
Gtr2

e|---------------------------------------------------------------------------|
B|---------------------------------------------------------------------------|
G|---------------------------------------5-----------------------------------|
D|---3-----6-----10---8-----------3/6----5-----------------------------------|
A|---3-----6-----10---8-----------3/6----3-----------------------------------|
E|---1-x8--4-x8--8-x8-6-x8--------1/4----------------------------------------|Repeat 2x 
then end it with
[ Tab from: http://www.guitartabs.cc/tabs/t/the_classic_crime/coldest_heart_tab.html ]
Chorus
Gtr1
e|-----------------------------------------------------------------------------|
B|-----------------------------------------------------------------------------|
G|--8-7-8-7-8-7-8-7------5/7h8p7-----------------------------------------------|
D|-----8---8-------8-x7---------8----------------------------------------------|
-|
A|---------------------------------------------------------------------------|
E|---------------------------------------------------------------------------|

For Verse 2 repeat the intro

Repeat Pre-chorus

Repeat Chorus and end it with

e|---------------------------------------------------------------------------|
B|---------------------------------------------------------------------------|
G|--------5------------------------------------------------------------------|
D|---6-6--5------------------------------------------------------------------|
A|---6-6--3------------------------------------------------------------------|
E|---4-4---------------------------------------------------------------------|

Bridge
Gtr1
e|---------------------------------------------------------------------------|
B|-------4-------------------------------------------------------------------|
G|--555--5-------7-------5-------8-------------------------------------------|
D|--555--x--555--5--333--3--666--6-------------------------------------------|
A|--335--3--555--x--333--x--666--x-------------------------------------------|
E|----------333--3--111--1--444--4-------------------------------------------|  xxx     xxx    xxx     xxx
Repeat 4x

Bridge
Gtr2
e|---------------------------------------------------------------------------|
B|---------------------------------------------------------------------------|
G|12121212121212121212121212121313131313131212121212121212121212121313131315-|
D|---------------------------------------------------------------------------|
A|---------------------------------------------------------------------------|
E|---------------------------------------------------------------------------|
How many times they do each not on the above riff I do not know...just do it however you like.

Repeat Chorus 2x

Outro
Gtr1
e|---------------------------------------------------------------------------|
B|---------------------------------------------------------------------------|
G|--555555--333333-----------------------------------------------------------|
D|--555555--333333--333333--666666\------------------------------------------|
A|--333333--111111--333333--666666\------------------------------------------|
E|------------------111111--444444\------------------------------------------|

Outro
Gtr2
e|---------------------------------------------------------------------------|
B|---------------------------------------------------------------------------|
G|---------------------------------------------------------------------------|
D|13131313131313131212121212121212101010101010-------------------------------|
A|---------------------------------------------------------------------------|
E|---------------------------------------------------------------------------|

| /  slide up
| \  slide down
| h  hammer-on
| p  pull-off
| ~  vibrato
| +  harmonic
| x  Mute note
===============================================================================
Comments