The Classic Crime - Coldest Heart Chords & Tabs

 

Coldest Heart Chords & Tabs

The Classic Crime Chords & Tabs

Version: 3 Type: Bass Tab 0 ratings
1 star 2 stars 3 stars 4 stars 5 stars
comments

Coldest Heart Bass Tab

   
-------------------------------------------------------------------------------
		The Coldest Heart - The Classic Crime
-------------------------------------------------------------------------------

Tuning: Standard

~Guitar Does Intro Once-Then...~

Verse
G|-------------------------------------------------------------------|
D|-------------------------------------------------------------------|
A|--3-3-3-3-3-3-3-3---------------------------------6-6-6-6-1-1-1-1--|
E|------------------3-3-3-3-3-3-3-3-4-4-4-4-4-4-4-4------------------|

Pre-Chorus
G|-------------------------------------------------------------------|
D|-------------------------------------------------------------------| x2
A|----------------------------------3-3-3-3-3-3-3-3-1-1-1-1-1-1-1-1--|
E|--1-1-1-1-1-1-1-1-4-4-4-4-4-4-4-4----------------------------------|

Chorus
G|-------------------------------------------------------------------|
D|-------------------------------------------------------------------| x2
A|----------------------------------3-3-3-3-3-3-3-3-1-1-1-1-1-1-1-1--|
E|--1-1-1-1-1-1-1-1-4-4-4-4-4-4-4-4----------------------------------|

Post-Chorus
G|----------------------|
D|----------------------|
A|----------------------|
E|--1~------4~------8\--|

Verse
G|-------------------------------------------------------------------|
D|-------------------------------------------------------------------|
A|--3-3-3-3-3-3-3-3---------------------------------6-6-6-6-1-1-1-1--|
E|------------------3-3-3-3-3-3-3-3-4-4-4-4-4-4-4-4------------------|
[ Tab from: http://www.guitartabs.cc/tabs/t/the_classic_crime/coldest_heart_btab_ver_3.html ]
Pre-Chorus
G|-------------------------------------------------------------------|
D|-------------------------------------------------------------------| x2
A|----------------------------------3-3-3-3-3-3-3-3-1-1-1-1-1-1-1-1--|
E|--1-1-1-1-1-1-1-1-4-4-4-4-4-4-4-4----------------------------------|

Chorus
G|-------------------------------------------------------------------|
D|-------------------------------------------------------------------| x2
A|----------------------------------3-3-3-3-3-3-3-3-1-1-1-1-1-1-1-1--|
E|--1-1-1-1-1-1-1-1-4-4-4-4-4-4-4-4----------------------------------|

Post-Chorus
G|----------------------|
D|----------------------|
A|----------------------|
E|--1~------4~------8\--|

~Break~

Bridge
G|-----------------------------------|
D|-----------------------------------| Repeat till chorus
A|--3-3-3-3-1-1-1-1------------------|
E|------------------1-1-1-1-4-4-4-4--|

Chorus
G|-------------------------------------------------------------------|
D|-------------------------------------------------------------------| x4
A|----------------------------------3-3-3-3-3-3-3-3-1-1-1-1-1-1-1-1--|
E|--1-1-1-1-1-1-1-1-4-4-4-4-4-4-4-4----------------------------------|

Outro
G|------------------------------------------------------------------|
D|------------------------------------------------------------------| 
A|--3-3-3--3--3--3--1-1-1--1--1--1----------------------------------|
E|----------------------------------1-1-1--1--1--1--4-4-4--4--4--4--|

| /  slide up
| \  slide down
| h  hammer-on
| p  pull-off
| ~  let note ring
| +  harmonic
| x  Mute note
===============================================================================
Comments