The Classic Crime - Broken Mess Chords & Tabs

 

Broken Mess Chords & Tabs

The Classic Crime Chords & Tabs

Version: 1 Type: Tab 0 ratings
1 star 2 stars 3 stars 4 stars 5 stars
comments

Broken Mess Tab

   
-------------------------------------------------------------------------------
                         BROKEN MESS - The Classic Crime
-------------------------------------------------------------------------------
Tabbed by: bobziemerman
Email: bobziemerman@gmail.com

Tuning: Drop half step

Verse riff 1
e|-------------3---3-3---3-----------2---2-------------------------------|
B|-3---3-3---3---3-----3-----3-3---3---3---2---2-3---3-3---3-3---3-3---3-|
G|---2-----2---------------4-----4-----------2-----0-----0-----0-----0---|
D|-----------------------------------------------------------------------|
A|-----------------------------------------------------------------------|
E|-----------------------------------------------------------------------|

e|-------------2---2-------------------------------|
B|-3---3-3---3---3---2---2-3---3-3---3-3---3-3---3-|
G|---4-----4-----------2-----0-----0-----0-----0---|
D|-------------------------------------------------|
A|-------------------------------------------------|
E|-------------------------------------------------|

[ Tab from: http://www.guitartabs.cc/tabs/t/the_classic_crime/broken_mess_tab.html ]
Verse riff 2
e|-2---2-2---2-3---3-3---3-----------2---2-------------------------------|
B|---3-----3-----3-----3-----3-3---3---3---2---2-3---3-3---3-3---3-3---3-|
G|-------------------------4-----4-----------2-----0-----0-----0-----0---|
D|-----------------------------------------------------------------------|
A|-----------------------------------------------------------------------|
E|-----------------------------------------------------------------------|

e|-------------2---2-------------------------------|
B|-3---3-3---3---3---2---2-3---3-3---3-3---3-3---3-|
G|---4-----4-----------2-----0-----0-----0-----0---|
D|-------------------------------------------------|
A|-------------------------------------------------|
E|-------------------------------------------------|


Chorus
     A (let ring)
And all I can say...

        D                  Bm                      G
Is that love is a terrible art, it's a hook in the heart

                     Em D2  A 
That can drag you on broken glass,

           D                          Bm                             G
And as you protest the shards in your flesh, the hook tears out your chest

                    Em D2  A              Bm (with stops, listen to the song) 
Until you're just a broken mess


(Verse riff 2) x2

(Chorus)

    G            A                D
But he has mercy on her lover and does not bleed him dry,

  G             D                        A
A credit to his self control, if it were me, that monster would probably die...


(Chorus x2 with alternate words, same chords)
Comments