The Classic Crime - Blisters And Coffee Chords & Tabs

 

Blisters And Coffee Chords & Tabs

The Classic Crime Chords & Tabs

Version: 1 Type: Tab 0 ratings
1 star 2 stars 3 stars 4 stars 5 stars
comments

Blisters And Coffee Tab

Artist: The Classic Crime
Song: Blisters and Coffee
Tuning: Drop D

Intro
  |----------------------|
  |----------------------|
  |-------101010-121212--|
  |-12/0---8-8-8-101010--|
  |-12/0---8-8-8-101010--|
  |-12/0---8-8-8-101010--|x4

Verse pt. I (palm muted)
  |----------------------|
  |----------------------|
  |----------------------|
  |-000-8888-333-5557----|
  |-000-8888-333-5557----|
  |-000-8888-333-5557----|x4

Verse pt. II
  |--------------------------------------------|(on-last-half-of-2nd-time)|
  |--------------------------------------------|--------------------------|
  |------------10-9-----------------10-9-10/12-|--------------------------|
  |-00-0--00-8------7h10-00-0--00-8------------|--888-101010--------------|
  |-00-0--00-8-----------00-0--00-8------------|--888-101010--------------|
  |-00-0--00-8-----------00-0--00-8--------(x2)|--888-101010--------------|
Pm  ..    ..             ..    ..
[ Tab from: http://www.guitartabs.cc/tabs/t/the_classic_crime/blisters_and_coffee_tab.html ]
Chorus
  |-----------------------------------------------------------------------|
  |-----------------------------------------------------------------------|
  |10101010101010101010--12121212-121212121212--7777-777777--7777-7777----|
  |-8-8-8-8-8-8-8-8-8-8--10101010-101010101010--5555-555555--0000-0000----|
  |-8-8-8-8-8-8-8-8-8-8--10101010-101010101010--5555-555555--0000-0000----|
  |-8-8-8-8-8-8-8-8-8-8--10101010-101010101010--5555-555555--0000-0000----|

Repeat Verse pt. I & II

Repeat Chorus 
  
Solo gtr 1 (palm muted)
  |---------------------|
  |---------------------|
  |---------------------|
  |---------------------|
  |------------------3--|
  |-0-0-88810-333-3h5---|

(im to lazy to tab out the rest of the solo, but its not hard so you can figure it out)

Repeat Chorus

End with
  |----------------------|
  |----------------------|
  |10---------7~---------|
  |-8~--------5~-------0-|
  |-8~--------5~-------0-|
  |-8~--------5~-------0-|

http://www.theclassiccrime.com/
Comments