The Classic Crime - Beautiful Darkside Chords & Tabs

 

Beautiful Darkside Chords & Tabs

The Classic Crime Chords & Tabs

Version: 1 Type: Bass Tab 0 ratings
1 star 2 stars 3 stars 4 stars 5 stars
comments

Beautiful Darkside Bass Tab

This is the bass line that comes in around 30 seconds in the verses...  I figured it out 
by ear, so it *might* not be right but Im pretty sure it is
[ Tab from: http://www.guitartabs.cc/tabs/t/the_classic_crime/beautiful_darkside_btab.html ]
G|----------------|
D|----------------|
A|--4---64---4--4-|  x3
E|4--4----74--4---|

G|----------------|
D|----------------|
A|--4--4-----4--4-|
E|4--4-----4--4---|
Comments