The Classic Crime - All The Memories Chords & Tabs

 

All The Memories Chords & Tabs

The Classic Crime Chords & Tabs

Version: 1 Type: Tab 0 ratings
1 star 2 stars 3 stars 4 stars 5 stars
comments

All The Memories Tab

   
-------------------------------------------------------------------------------
			     ALL THE MEMORIES - The Classic Crime
-------------------------------------------------------------------------------
Tabbed by: Franco Nidea
Email: franco_nidea@yahoo.com

Tuning: Standard


This is just like a guide to the song. I'll update when I'm not lazy anymore. Just 
to post this since there isn't any tab for this great song.


INTRO

Lead
e|-----------------------------------------------------------------|
B|-----------------------------------------------------------------|
G|---7~---------------------------------------11~-------9~------7--|
D|---7~----------------------------------------x--------x~------7--|
A|---5~----------------------------------------9~-------7~------5--|
E|-----------------------------------------------------------------|

Rhythm
e|-----------------------------------------------------------------|
B|-----------------------------------------------------------------|
G|-----------------------------4~--------------5~--------------7---|
D|-----------------------------4~--------------5~--------------7---|
A|-----------------------------2~--------------3~--------------5---|
E|-----------------------------------------------------------------|


[ Tab from: http://www.guitartabs.cc/tabs/t/the_classic_crime/all_the_memories_tab.html ]
VERSE 1

lead:    () () () ()
         () () () d

rhythm:  d  g  d  g
         b  g  b  g


CHORUS = INTRO

VERSE 2

same as verse 1 except lead

e |------------------------------|
B |----7-----5-------5h7-5-------|
G |--7----7-----7-7--------7-----|
D |------------------------------|
A |------------------------------|
E |------------------------------|


BRIDGE

rhythm: b a#  <---listen for strumming pattern

e |------------------------------|
B |--7---7---6---7---------------|
G |----7---7---7---7-------------| <---repeat until it goes to chorus
D |------------------------------|
A |------------------------------|
E |------------------------------|



LAST CHORUS

lead does this until end of the song:

e |--5-5--------------------------|
B |-----------5-5-----------------|
G |------7-7-------7-7------------| REPEAT xxxx times
D |-------------------------------|
A |-------------------------------|
E |-------------------------------|


| () no playing
| /  slide up
| \  slide down
| h  hammer-on
| p  pull-off
| ~  play 'til next note/chord is shown
| +  harmonic
| x  Mute note
===============================================================================
Comments