The City On Film - For Holly Acoustic Chords & Tabs

 

For Holly Acoustic Chords & Tabs

The City On Film Chords & Tabs

Version: 1 Type: Tab 0 ratings
1 star 2 stars 3 stars 4 stars 5 stars
comments

For Holly Acoustic Tab

Artist: The City on Film (www.cityonfilm.com)
Song: For Holly
Tabber: Andrew Biles

This is based on the acoustic version of the song found on the limited 'Little informal'
EP, however, I think the only real diffence on the electric verison is the bridge.  In
the solo part it sounds like there's two guitars, but I wanted to be able to play both
the parts so I tried putting them together and it sounds pretty good with the solo
guitar.  I've laid it out in the correct order as well, so hopefully there'll be no
problems with it.

EDIT: Added an alternate way to play the song.  This first way is how Bob played it live
when I saw him the other day, the only bit I had trouble remembering was how he played
the bridge, but this matches in with the CD pretty well.

Looking at the Tab difficulty thing it took a while to decide, the hardest parts are
getting to know the chord shapes and the solo part as it has a strange feel to it, I
think the time signature may be slightly different, but if you know the song you won't
struggle to badly.

Standard tuning

Verse
|---------------------------|-------------------|
|-7-8-7-7-7--3--3-3-3--3-3--|-7-0-0-7-0---3-3-3-|
|-0-0-0-9-0--0--0-0-4--4-4--|-0-0-0-0-0---0-0-4-|
|-x-x-x-x-x--x--x-x-x--x-x--|-x-x-x-x-x---x-x-x-|
|-7-7-7-7-7--3--3-3-3--3-3--|-7-7-7-7-7---3-3-3-|
|---------------------------|-------------------|
                         x3

Chorus
|---------|-----0-0-|---------|-0------------|
|-----3-3-|-----0-0-|-----3-3-|---3-----3----|
|-----4-4-|-----4-4-|-----4-4-|-----4-----4--|
|-----5-5-|-----5-5-|-----5-5-|-------5------|
|-----x-x-|-2-2-2-2-|-----x-x-|--------------|
|-3-3-3-3-|---------|-3-3-3-3-|--------------|
       x4        x4        x6

Verse
|---------------------------|-------------------|
|-7-8-7-7-7--3--3-3-3--3-3--|-7-0-0-7-0---3-3-3-|
|-0-0-0-9-0--0--0-0-4--4-4--|-0-0-0-0-0---0-0-4-|
|-x-x-x-x-x--x--x-x-x--x-x--|-x-x-x-x-x---x-x-x-|
|-7-7-7-7-7--3--3-3-3--3-3--|-7-7-7-7-7---3-3-3-|
|---------------------------|-------------------|
                         x3

Chorus
|---------|-----0-0-|---------|-0------------|
|-----3-3-|-----0-0-|-----3-3-|---3-----3----|
|-----4-4-|-----4-4-|-----4-4-|-----4-----4--|
|-----5-5-|-----5-5-|-----5-5-|-------5------|
|-----x-x-|-2-2-2-2-|-----x-x-|--------------|
|-3-3-3-3-|---------|-3-3-3-3-|--------------|
       x4        x4        x6

|---------|-----0-0-|---------|-------------|
|-----3-3-|-----0-0-|-----3-3-|-3-----------|
|-----4-4-|-----4-4-|-----4-4-|-4-----------|
|-----5-5-|-----5-5-|-----5-5-|-5-----------|
|-----x-x-|-2-2-2-2-|-----x-x-|-x-----------|
|-3-3-3-3-|---------|-3-3-3-3-|-3-----------|
       x4        x4        x6


Solo
|-------------------------------------|-------|
|----7-8-7-------3--------------------|-3-3-3-|
|----0-0-0--0------4-------------4/7--|-0-0-4-|
|----x-x-x-----------5---------7------|-x-x-x-|
|-7--7-7-7----3---------3----7--------|-3-3-3-|
|-------------------------5-----------|-------|
                                   x4

Bridge
|-0------0---0---|--0-------|
|-3------3---0---|--3-------|
|-0------0---0---|--0-------|
|-0------2---2---|--0-------|
|-2------3---2---|--2-------|
|-3--------------|--3-------|
              x3

Chorus
|---------|-----0-0-|---------|-0------------|
|-----3-3-|-----0-0-|-----3-3-|---3-----3----|
|-----4-4-|-----4-4-|-----4-4-|-----4-----4--|
|-----5-5-|-----5-5-|-----5-5-|-------5------|
|-----x-x-|-2-2-2-2-|-----x-x-|--------------|
|-3-3-3-3-|---------|-3-3-3-3-|--------------|
       x4        x4        x6
[ Tab from: http://www.guitartabs.cc/tabs/t/the_city_on_film/for_holly_acoustic_tab.html ]
|---------|-----0-0-|---------|-------------|
|-----3-3-|-----0-0-|-----3-3-|-3-----------|
|-----4-4-|-----4-4-|-----4-4-|-4-----------|
|-----5-5-|-----5-5-|-----5-5-|-5-----------|
|-----x-x-|-2-2-2-2-|-----x-x-|-x-----------|
|-3-3-3-3-|---------|-3-3-3-3-|-3-----------|
       x4        x4        x6

Verse
|---------------------------|---------------------|
|-7-8-7-7-7--3--3-3-3--3-3--|-7-0-0-7-0---3-3-3-3-|
|-0-0-0-9-0--0--0-0-4--4-4--|-0-0-0-0-0---0-0-4-4-|
|-x-x-x-x-x--x--x-x-x--x-x--|-x-x-x-x-x---x-x-x-x-|
|-7-7-7-7-7--3--3-3-3--3-3--|-7-7-7-7-7---3-3-3-3-|
|---------------------------|---------------------|
                         x3
___________________________________________


Verse
|-2--3-2-0-2-0--0--0-0--0--0-0--|-2-0--2-0--0--0--0---0-|
|-3--3-3-3-3-3--3--3-3--0--0-0--|-3-0--3-0--3--3--0---0-|
|-0--0-0-0-0-0--0--0-0--0--0-0--|-0-0--0-0--0--0--0---0-|
|-2--2-2-2-2----2--2-2--2--2-2--|-2-2--2-2--2--2--2---2-|
|---------------3--3-3--2--2-2--|-----------3--3--2---2-|
|-------------------------------|-----------------------|
                             x3

Chorus
|---------|-----0-0-|-----0-0-|-0------------|
|-----3-3-|-----0-0-|-----3-3-|---3-----3-0--|
|-----0-0-|-----x-x-|-----0-0-|-----0--------|
|-----0-0-|-----4-4-|-----0-0-|-------0------|
|-2-2-2-2-|-4-4-4-4-|-2-2-2-2-|--------------|
|-3-3-3-3-|-2-2-2-2-|-3-3-3-3-|--------------|
       x4        x4        x6

Verse
|-2--3-2-0-2-0--0--0-0--0--0-0--|-2-0--2-0--0--0--0---0-|
|-3--3-3-3-3-3--3--3-3--0--0-0--|-3-0--3-0--3--3--0---0-|
|-0--0-0-0-0-0--0--0-0--0--0-0--|-0-0--0-0--0--0--0---0-|
|-2--2-2-2-2----2--2-2--2--2-2--|-2-2--2-2--2--2--2---2-|
|---------------3--3-3--2--2-2--|-----------3--3--2---2-|
|-------------------------------|-----------------------|
                             x3

Chorus
|---------|-----0-0-|-----0-0-|-0------------|
|-----3-3-|-----0-0-|-----3-3-|---3-----3-0--|
|-----0-0-|-----x-x-|-----0-0-|-----0--------|
|-----0-0-|-----4-4-|-----0-0-|-------0------|
|-2-2-2-2-|-4-4-4-4-|-2-2-2-2-|--------------|
|-3-3-3-3-|-2-2-2-2-|-3-3-3-3-|--------------|
       x4        x4        x6

|---------|-----0-0-|-----0-0-|-0------------|
|-----3-3-|-----0-0-|-----3-3-|-3------------|
|-----0-0-|-----x-x-|-----0-0-|-0------------|
|-----0-0-|-----4-4-|-----0-0-|-0------------|
|-2-2-2-2-|-4-4-4-4-|-2-2-2-2-|-2------------|
|-3-3-3-3-|-2-2-2-2-|-3-3-3-3-|-3------------|
       x4        x4        x6


Solo (two guitars into one)
|----2-3--2--------------------------|-------|
|----3-3--3--3--3-3p0----------------|-3-3-0-|
|----0-0--0--0--0-----0--------2-4/7-|-0-0-0-|
|-2--2-2--2--2--2------------2-------|-2-2-2-|
|------------3--3-------3p0----------|-3-3-2-|
|------------------------------------|-------|
                                  x4

Bridge
|-0------0---0---|--0-------|
|-3------3---0---|--3-------|
|-0------0---0---|--0-------|
|-0------2---2---|--0-------|
|-2------3---2---|--2-------|
|-3--------------|--3-------|
              x3

Chorus
|---------|-----0-0-|-----0-0-|-0------------|
|-----3-3-|-----0-0-|-----3-3-|---3-----3-0--|
|-----0-0-|-----x-x-|-----0-0-|-----0--------|
|-----0-0-|-----4-4-|-----0-0-|-------0------|
|-2-2-2-2-|-4-4-4-4-|-2-2-2-2-|--------------|
|-3-3-3-3-|-2-2-2-2-|-3-3-3-3-|--------------|
       x4        x4        x6

|---------|-----0-0-|-----0-0-|-0------------|
|-----3-3-|-----0-0-|-----3-3-|-3------------|
|-----0-0-|-----x-x-|-----0-0-|-0------------|
|-----0-0-|-----4-4-|-----0-0-|-0------------|
|-2-2-2-2-|-4-4-4-4-|-2-2-2-2-|-2------------|
|-3-3-3-3-|-2-2-2-2-|-3-3-3-3-|-3------------|
       x4        x4        x6

Verse
|-2--3-2-0-2-0--0--0-0--0--0-0--|-2-0--2-0--0--0--0--0-|
|-3--3-3-3-3-3--3--3-3--0--0-0--|-3-0--3-0--3--3--0--0-|
|-0--0-0-0-0-0--0--0-0--0--0-0--|-0-0--0-0--0--0--0--0-|
|-2--2-2-2-2----2--2-2--2--2-2--|-2-2--2-2--2--2--2--2-|
|---------------3--3-3--2--2-2--|-----------3--3--2--2-|
|-------------------------------|----------------------|
                             x3

any questions? andrewbiles@hotmail.com
Comments