The Chariot - And Then Came Then Chords & Tabs

 

And Then Came Then Chords & Tabs

The Chariot Chords & Tabs

Version: 1 Type: Tab 0 ratings
1 star 2 stars 3 stars 4 stars 5 stars
comments

And Then Came Then Tab

Tabbed by:payden
Email:rssfootballjr610@netscape.net

Tuning:cgcfad

e|---------------------------------------------------------------------------|
B|-------------------------------<4>-----------------------------------------|
G|------------<5><4>---------------------------------------------------------|
D|-444444-0000-----444444-00002040--444444-00002-444444-00002040-------------|
A|-444444-0000-----444444-00002040--444444-00002-444444-00002040-------------|
E|-444444-0000-----444444-00002040--444444-00002-444444-00002040-------------|
guitar#1
e|---------------------------------------------------------------------------|
B|---------------------------------------------------------------------------|
G|---------------------------------------------------------------------------|
D|1111111--------------------------------------------------------------------|
A|1111111--------------------------------------------------------------------|
E|1111111-0 0-0-000--0-0-0-000-0-0-0-000--0-0-0-000--------------------------|
guitar#2
e|-------------------------------------------------------------------------|
B|-------------------------------------------------------------------------|
G|---------3-3-3-333-3-3-3-333-3-3-3-333-3-3-3-333-------------------------|
D|1111111------------------------------------------------------------------|
A|1111111--2-2-2-222-2-2-2-222-2-2-2-222-2-2-2-222-------------------------|
E|1111111------------------------------------------------------------------|
[ Tab from: http://www.guitartabs.cc/tabs/t/the_chariot/and_then_came_then_tab.html ]
e|---------------------------------------------------------------------------|
B|----------10------------10---------10------------10---------10-------------|
G|----------13------------13---------13------------13---------13-------------|
D|-000000000--0000-0-0-0-0--000000000--0000-0-0-0-0--000000000--0000-0-0-0---|
A|-000000000--0000-0-0-0-0--000000000--0000-0-0-0-0--000000000--0000-0-0-0---|
E|-000000000--0000-0-0-0-0--000000000--0000-0-0-0-0--000000000--0000-0-0-0---|
   .........  .... . . . .  .........  .... . . . .  .........  .... . . .
e|------------------------------------------------------------------------|
B|---10----------10------------10---------10------------10------10--------|
G|---13----------13------------13---------13------------13------13--------|
D|-0----000000000--0000-0-0-0-0--000000000--0000-0-0-0-0------------------|
A|-0----000000000--0000-0-0-0-0--000000000--0000-0-0-0-0------------------|
E|-0----000000000--0000-0-0-0-0--000000000--0000-0-0-0-0-----000--0000-0-0|
   .    .........  .... . . . .  .........  .... . . . .     ...  .... . .
e|------------------------------------------------------------------------|
B|----10---------10-------------------------------------------------------|
G|----13---------13-------------------------------------------------------|
D|------------------------------------------------------------------------|
A|------------------------------------------------------------------------|
E|-0-0--000000000--0000-0-0-0-0-0--000000000-0000-0-0-0-000000000-0000-0-0|
   . .  .........  .... . . . . .  ......... .... . . . ......... .... . .
e|--------------------------------------------------------------------------|
B|---------------------------------------101010-----------------------------|
G|---------------------------------------131313<13>-------------------------|
D|-<4>----------------------------------------------------------------------|
A|--------------------------------------------------------------------------|
E|-0--000000000-0000-0-0-0-000000000-0000---------00000000-0000-0-0-0-------|
   .  ......... .... . . . ......... ....         ........ .... . . .
e|-------------------------------------------------------------------------|
B|-------------------------------------------------------------------------|
G|-------------------------------------------------------------------------|
D|-------------------------------------------------------------------------|
A|-------------------------------------------------------------------------|
E|-000000000-0000-0-0-0-222222222-2222-2-2-2>7-000000000-0000-0-0-0--------|
   ......... .... . . . ......... .... . . . . ......... .... . . .

e|--------------------------------------------------------------------------|
B|---------------------------------------------------------<9>--------------|
G|--------------------------------------------------------------------------|
D|--------------------------------------------------------------------------|
A|--------------------------------------------------------------------------|
E|-000000000-00000-00000-00000-00000-00000-00000-00000-00000--00000-00000---|
   ......... ..... ..... ..... ..... ..... ..... ..... .....  ..... .....
e|-----------------------------------------------------------------------------|
B|-----------------------------------------------------------------------------|
G|<4><5> ------<4><5>-------<4><5>---------------------------------------------|
D|-----------------------------------------------------------------------------|
A|-----------------------------------------------------------------------------|
E|----00000-00000---00000-0000--00000-00000-0-0-0-0-0--0-0-0-0-0--0-0-0-0-0----|
      ..... .....   ..... ....  ..... ..... . . . . .  . . . . .  . . . . .

e|---------------------------------------------------------------------------|
B|---------------------------------------------------------------------------|
G|---------------------------------------------------------------------------|
D|---------------------------------------------------------------------------|
A|---------------------------------------------------------------------------|
E|-0-0-0-0-0--0-0-0-0-0--0-0-0-0-0--0-0-0-0-0--0-0-0-0-0--0------------------|
   . . . . .  . . . . .  . . . . .  . . . . .  . . . . .  .

repeat 4x
e|-------------------------------------------------------------------------|
B|-------------------------------------------------------------------------|
G|-99999999-55555555-12121212121212-77777777-------------------------------|
D|-------------------------------------------------------------------------|
A|-77777777-33333333-10101010101010-55555555-------------------------------|
E|-------------------------------------------------------------------------|

guitar#1
e|----------------------------------------------------------------------------|
B|--9---9---9---9-9-9---9---9---9--9-9-9---9---9--9--9-9-9---9--9--9--9----9--|
G|-12--12--12--121212---12--12--12-121212--12--12-12-121212--12-12-12-12---12-|
D|----------------------------------------------------------------------------|
A|----------------------------------------------------------------------------|
E|-----------------------------------------------------------------------00---|
guitar#2
e|---------------------------------------------------------------------------|
B|--8---8---8---8-8-8--8---8---8---8-8-8-----8---8--8-8-8-8---8--8--8--8---8-|
G|--11--11--11--111111-11--11--11--111111----11--11-11111111--11-11-11-11--1-|
D|---------------------------------------------------------------------------|
A|---------------------------------------------------------------------------|
E|-----------------------------------------------------------------------00--|
                                                                         ..

i hope u can figure out this tab. the chariot is truly awsome and so is this song. i saw 
there where no tabs for this band so i maid one i did the best that i could so hope u 
it.God bless
Comments