The Chameleons - Second Skin Chords & Tabs

 

Second Skin Chords & Tabs

The Chameleons Chords & Tabs

Version: 1 Type: Bass Tab

Second Skin Bass Tab

#----------------------------------PLEASE NOTE---------------------------------#
#This file is the author's own work and represents their interpretation of the #
#song. You may only use this file for private study, scholarship, or research. #
#------------------------------------------------------------------------------##
From: "Bugsan" <>
The Chameleons - Second Skin, bass tabs
official website: http://www.thechameleons.com/
=======================================

========================
CHORUS+VERSE:
=============
"One cold damp evening......."

E||--------------------------|-------------------------|--------------------------|
B||--------------------------|-------------------------|--------------------------|
G||--9--9--9--9--9--9--9--9--|--9--9--9--9--9--9--7----|--5--5--5--5--5--5--5--5--|
D||--------------------------|-------------------------|--------------------------|
[ Tab from: http://www.guitartabs.cc/tabs/t/the_chameleons/second_skin_btab.html ]
E||-------------------------|-------------------------|--------------------------|
B||-------------------------|-------------------------|--------------------------|
G||--5--5--5--5--5--5--4----|--2--2--2--2--4--5--2----|--7--7--7--7--7--7--7--7--|
D||-------------------------|-------------------------|--------------------------|

========================
BRIDGE:
=======

E||--------------------------|
B||--2--2--2--2--2--2--2--2--|
G||--------------------------| x4
D||--------------------------|

========================
END:
====
"I realise a miracle is due......"

G||--------------------------|--------------------------|
D||--6--6--6--6--6--6--6--6--|--4--4--4--4--4--4--4--4--|
A||--------------------------|--------------------------|
E||--------------------------|--------------------------|
                       
G||--------------------------|--------------------------|
D||--2--2--2--2--2--2--2--2--|--2--2--2--2--2--2--2--2--|
A||--------------------------|--------------------------|
E||--------------------------|--------------------------|

x25 times (until end)